  0
SECTION
  2
HEADER
  9
$ACADVER
  1
AC1012
  9
$DWGCODEPAGE
  3
ansi_932
  9
$INSBASE
 10
0.0
 20
0.0
 30
0.0
  9
$EXTMIN
 10
0.0
 20
0.0
 30
0.0
  9
$EXTMAX
 10
230.879587
 20
210.431048
 30
0.0
  9
$LIMMIN
 10
0.0
 20
0.0
  9
$LIMMAX
 10
230.879587
 20
210.431048
  9
$ORTHOMODE
 70
     0
  9
$REGENMODE
 70
     1
  9
$FILLMODE
 70
     1
  9
$QTEXTMODE
 70
     0
  9
$MIRRTEXT
 70
     1
  9
$DRAGMODE
 70
     2
  9
$LTSCALE
 40
1.0
  9
$OSMODE
 70
    37
  9
$ATTMODE
 70
     1
  9
$TEXTSIZE
 40
0.2
  9
$TRACEWID
 40
0.05
  9
$TEXTSTYLE
  7
ED_VECTOR
  9
$CLAYER
  8
0
  9
$CELTYPE
  6
BYLAYER
  9
$CECOLOR
 62
   256
  9
$CELTSCALE
 40
1.0
  9
$DELOBJ
 70
     1
  9
$DISPSILH
 70
     0
  9
$DIMSCALE
 40
1.0
  9
$DIMASZ
 40
3.0
  9
$DIMEXO
 40
1.0
  9
$DIMDLI
 40
10.0
  9
$DIMRND
 40
0.0
  9
$DIMDLE
 40
5.0
  9
$DIMEXE
 40
1.0
  9
$DIMTP
 40
0.0
  9
$DIMTM
 40
0.0
  9
$DIMTXT
 40
4.0
  9
$DIMCEN
 40
2.5
  9
$DIMTSZ
 40
0.0
  9
$DIMTOL
 70
     0
  9
$DIMLIM
 70
     0
  9
$DIMTIH
 70
     0
  9
$DIMTOH
 70
     0
  9
$DIMSE1
 70
     0
  9
$DIMSE2
 70
     0
  9
$DIMTAD
 70
     1
  9
$DIMZIN
 70
     8
  9
$DIMBLK
  1

  9
$DIMASO
 70
     1
  9
$DIMSHO
 70
     1
  9
$DIMPOST
  1

  9
$DIMAPOST
  1

  9
$DIMALT
 70
     0
  9
$DIMALTD
 70
     3
  9
$DIMALTF
 40
0.03937
  9
$DIMLFAC
 40
1.0
  9
$DIMTOFL
 70
     1
  9
$DIMTVP
 40
0.0
  9
$DIMTIX
 70
     0
  9
$DIMSOXD
 70
     0
  9
$DIMSAH
 70
     1
  9
$DIMBLK1
  1
EDTIP_ARROW_S
  9
$DIMBLK2
  1
EDTIP_ARROW_E
  9
$DIMSTYLE
  2
EDDIMINFO
  9
$DIMCLRD
 70
     7
  9
$DIMCLRE
 70
     7
  9
$DIMCLRT
 70
     7
  9
$DIMTFAC
 40
1.0
  9
$DIMGAP
 40
1.0
  9
$DIMJUST
 70
     0
  9
$DIMSD1
 70
     0
  9
$DIMSD2
 70
     0
  9
$DIMTOLJ
 70
     0
  9
$DIMTZIN
 70
     8
  9
$DIMALTZ
 70
     0
  9
$DIMALTTZ
 70
     0
  9
$DIMFIT
 70
     3
  9
$DIMUPT
 70
     0
  9
$DIMUNIT
 70
     2
  9
$DIMDEC
 70
     2
  9
$DIMTDEC
 70
     2
  9
$DIMALTU
 70
     2
  9
$DIMALTTD
 70
     3
  9
$DIMTXSTY
  7
ED_VECTOR
  9
$DIMAUNIT
 70
     0
  9
$LUNITS
 70
     2
  9
$LUPREC
 70
     4
  9
$SKETCHINC
 40
0.1
  9
$FILLETRAD
 40
0.5
  9
$AUNITS
 70
     0
  9
$AUPREC
 70
     0
  9
$MENU
  1
.
  9
$ELEVATION
 40
0.0
  9
$PELEVATION
 40
0.0
  9
$THICKNESS
 40
0.0
  9
$LIMCHECK
 70
     0
  9
$CHAMFERA
 40
0.5
  9
$CHAMFERB
 40
0.5
  9
$CHAMFERC
 40
1.0
  9
$CHAMFERD
 40
0.0
  9
$SKPOLY
 70
     0
  9
$TDCREATE
 40
2456622.429191042
  9
$TDUPDATE
 40
2456622.429191053
  9
$TDINDWG
 40
0.0000000116
  9
$TDUSRTIMER
 40
0.0000000116
  9
$USRTIMER
 70
     1
  9
$ANGBASE
 50
0.0
  9
$ANGDIR
 70
     0
  9
$PDMODE
 70
     0
  9
$PDSIZE
 40
0.0
  9
$PLINEWID
 40
0.0
  9
$COORDS
 70
     1
  9
$SPLFRAME
 70
     0
  9
$SPLINETYPE
 70
     6
  9
$SPLINESEGS
 70
     8
  9
$ATTDIA
 70
     0
  9
$ATTREQ
 70
     1
  9
$HANDLING
 70
     1
  9
$HANDSEED
  5
7AA
  9
$SURFTAB1
 70
     6
  9
$SURFTAB2
 70
     6
  9
$SURFTYPE
 70
     6
  9
$SURFU
 70
     6
  9
$SURFV
 70
     6
  9
$UCSNAME
  2

  9
$UCSORG
 10
0.0
 20
0.0
 30
0.0
  9
$UCSXDIR
 10
1.0
 20
0.0
 30
0.0
  9
$UCSYDIR
 10
0.0
 20
1.0
 30
0.0
  9
$PUCSNAME
  2

  9
$PUCSORG
 10
0.0
 20
0.0
 30
0.0
  9
$PUCSXDIR
 10
1.0
 20
0.0
 30
0.0
  9
$PUCSYDIR
 10
0.0
 20
1.0
 30
0.0
  9
$USERI1
 70
     0
  9
$USERI2
 70
     0
  9
$USERI3
 70
     0
  9
$USERI4
 70
     0
  9
$USERI5
 70
     0
  9
$USERR1
 40
0.0
  9
$USERR2
 40
0.0
  9
$USERR3
 40
0.0
  9
$USERR4
 40
0.0
  9
$USERR5
 40
0.0
  9
$WORLDVIEW
 70
     1
  9
$SHADEDGE
 70
     3
  9
$SHADEDIF
 70
    70
  9
$TILEMODE
 70
     1
  9
$MAXACTVP
 70
    64
  9
$PINSBASE
 10
0.0
 20
0.0
 30
0.0
  9
$PLIMCHECK
 70
     0
  9
$PEXTMIN
 10
1.000000E+20
 20
1.000000E+20
 30
1.000000E+20
  9
$PEXTMAX
 10
-1.000000E+20
 20
-1.000000E+20
 30
-1.000000E+20
  9
$PLIMMIN
 10
0.0
 20
0.0
  9
$PLIMMAX
 10
12.0
 20
9.0
  9
$UNITMODE
 70
     0
  9
$VISRETAIN
 70
     1
  9
$PLINEGEN
 70
     0
  9
$PSLTSCALE
 70
     1
  9
$TREEDEPTH
 70
  3020
  9
$PICKSTYLE
 70
     1
  9
$CMLSTYLE
  2
STANDARD
  9
$CMLJUST
 70
     0
  9
$CMLSCALE
 40
1.0
  9
$SAVEIMAGES
 70
     1
  0
ENDSEC
  0
SECTION
  2
CLASSES
  0
CLASS
  1
ACDBDICTIONARYWDFLT
  2
AcDbDictionaryWithDefault
  3
ObjectDBX Classes
 90
    32768
280
     0
281
     0
  0
CLASS
  1
XRECORD
  2
AcDbXrecord
  3
AutoCAD 2000
 90
    32768
280
     0
281
     0
  0
CLASS
  1
LWPOLYLINE
  2
AcDbPolyline
  3
AutoCAD 2000
 90
    32768
280
     0
281
     1
  0
CLASS
  1
HATCH
  2
AcDbHatch
  3
AutoCAD 2000
 90
    32768
280
     0
281
     1
  0
CLASS
  1
ACDBPLACEHOLDER
  2
AcDbPlaceHolder
  3
ObjectDBX Classes
 90
        0
280
     0
281
     0
  0
CLASS
  1
LAYOUT
  2
AcDbLayout
  3
ObjectDBX Classes
 90
        0
280
     0
281
     0
  0
ENDSEC
  0
SECTION
  2
TABLES
  0
TABLE
  2
VPORT
  5
8
330
0
100
AcDbSymbolTable
 70
     1
  0
VPORT
  5
29
330
8
100
AcDbSymbolTableRecord
100
AcDbViewportTableRecord
  2
*ACTIVE
 70
     0
 10
0.0
 20
0.0
 11
1.0
 21
1.0
 12
115.439793
 22
105.215524
 13
0.0
 23
0.0
 14
0.5
 24
0.5
 15
0.5
 25
0.5
 16
0.0
 26
0.0
 36
1.0
 17
0.0
 27
0.0
 37
0.0
 40
210.431048
 41
1.097175
 42
50.0
 43
0.0
 44
0.0
 50
0.0
 51
0.0
 71
     0
 72
   100
 73
     1
 74
     3
 75
     0
 76
     0
 77
     0
 78
     0
  0
ENDTAB
  0
TABLE
  2
LTYPE
  5
5
330
0
100
AcDbSymbolTable
 70
     5
  0
LTYPE
  5
14
330
5
100
AcDbSymbolTableRecord
100
AcDbLinetypeTableRecord
  2
BYBLOCK
 70
     0
  3

 72
    65
 73
     0
 40
0.0
  0
LTYPE
  5
15
330
5
100
AcDbSymbolTableRecord
100
AcDbLinetypeTableRecord
  2
BYLAYER
 70
     0
  3

 72
    65
 73
     0
 40
0.0
  0
LTYPE
  5
16
330
5
100
AcDbSymbolTableRecord
100
AcDbLinetypeTableRecord
  2
CONTINUOUS
 70
     0
  3
--------------------
 72
    65
 73
     0
 40
0.0
  0
LTYPE
  5
2A
330
5
100
AcDbSymbolTableRecord
100
AcDbLinetypeTableRecord
  2
DASHED
 70
     0
  3
- - - - - - - - - - -
 72
    65
 73
     2
 40
19.1
 49
12.7
 74
     0
 49
-6.4
 74
     0
  0
LTYPE
  5
2B
330
5
100
AcDbSymbolTableRecord
100
AcDbLinetypeTableRecord
  2
CENTER
 70
     0
  3
- ･ - ･ - ･ - ･ - ･ - ･ - ･ - ･ - ･ - ･ -
 72
    65
 73
     4
 40
51.0
 49
31.8
 74
     0
 49
-6.4
 74
     0
 49
6.4
 74
     0
 49
-6.4
 74
     0
  0
LTYPE
  5
2C
330
5
100
AcDbSymbolTableRecord
100
AcDbLinetypeTableRecord
  2
PHANTOM
 70
     0
  3
- ･ ･ - ･ ･ - ･ ･ - ･ ･ - ･ ･ - ･ ･ - ･ ･ - 
 72
    65
 73
     6
 40
63.8
 49
31.8
 74
     0
 49
-6.4
 74
     0
 49
6.4
 74
     0
 49
-6.4
 74
     0
 49
6.4
 74
     0
 49
-6.4
 74
     0
  0
LTYPE
  5
2D
330
5
100
AcDbSymbolTableRecord
100
AcDbLinetypeTableRecord
  2
DOT
 70
     0
  3
・・・・・・・・・・・・・・・
 72
    65
 73
     2
 40
6.5
 49
0.1
 74
     0
 49
-6.4
 74
     0
  0
ENDTAB
  0
TABLE
  2
LAYER
  5
2
330
0
100
AcDbSymbolTable
 70
    16
  0
LAYER
  5
10
330
2
100
AcDbSymbolTableRecord
100
AcDbLayerTableRecord
  2
0
 70
     0
 62
     7
  6
CONTINUOUS
  0
LAYER
  5
2E
330
2
100
AcDbSymbolTableRecord
100
AcDbLayerTableRecord
  2
CSLAYER2
 70
     0
 62
     7
  6
CONTINUOUS
  0
ENDTAB
  0
TABLE
  2
STYLE
  5
3
330
0
100
AcDbSymbolTable
 70
     2
  0
STYLE
  5
11
330
3
100
AcDbSymbolTableRecord
100
AcDbTextStyleTableRecord
  2
STANDARD
 70
     0
 40
0.0
 41
1.0
 50
0.0
 71
     0
 42
0.2
  3
txt
  4

  0
STYLE
  5
3D
330
3
100
AcDbSymbolTableRecord
100
AcDbTextStyleTableRecord
  2
ED_VECTOR
 70
     0
 40
0.0
 41
1.0
 50
0.0
 71
     0
 42
0.2
  3
MONOTXT.SHX
  4
BIGFONT.SHX
  0
ENDTAB
  0
TABLE
  2
VIEW
  5
6
330
0
100
AcDbSymbolTable
 70
     0
  0
ENDTAB
  0
TABLE
  2
UCS
  5
7
330
0
100
AcDbSymbolTable
 70
     0
  0
ENDTAB
  0
TABLE
  2
APPID
  5
9
330
0
100
AcDbSymbolTable
 70
     1
  0
APPID
  5
12
330
9
100
AcDbSymbolTableRecord
100
AcDbRegAppTableRecord
  2
ACAD
 70
     0
  0
ENDTAB
  0
TABLE
  2
DIMSTYLE
  5
A
330
0
100
AcDbSymbolTable
 70
     2
  0
DIMSTYLE
105
27
330
A
100
AcDbSymbolTableRecord
100
AcDbDimStyleTableRecord
  2
STANDARD
 70
     0
  3

  4

  5

  6

  7

 40
1.0
 41
0.18
 42
0.0625
 43
0.38
 44
0.18
 45
0.0
 46
0.0
 47
0.0
 48
0.0
140
0.18
141
0.09
142
0.0
143
25.4
144
1.0
145
0.0
146
1.0
147
0.09
 71
     0
 72
     0
 73
     1
 74
     1
 75
     0
 76
     0
 77
     0
 78
     0
170
     0
171
     2
172
     0
173
     0
174
     0
175
     0
176
     0
177
     0
178
     0
270
     2
271
     4
272
     4
273
     2
274
     2
340
11
275
     0
280
     0
281
     0
282
     0
283
     1
284
     0
285
     0
286
     0
287
     3
288
     0
  0
DIMSTYLE
105
6E
330
A
100
AcDbSymbolTableRecord
100
AcDbDimStyleTableRecord
  2
EDDIMINFO
 70
     0
  3

  4

  5

  6
EDTIP_ARROW_S
  7
EDTIP_ARROW_E
 40
1.0
 41
3.0
 42
1.0
 43
10.0
 44
1.0
 45
0.0
 46
5.0
 47
0.0
 48
0.0
140
4.0
141
2.5
142
0.0
143
0.03937
144
1.0
145
0.0
146
1.0
147
1.0
 71
     0
 72
     0
 73
     0
 74
     0
 75
     0
 76
     0
 77
     1
 78
     8
170
     0
171
     3
172
     1
173
     1
174
     0
175
     0
176
     7
177
     7
178
     7
179
     2
270
     2
271
     2
272
     2
273
     2
274
     3
340
3D
275
     0
280
     0
281
     0
282
     0
283
     0
284
     8
285
     0
286
     0
287
     3
288
     0
  0
ENDTAB
  0
TABLE
  2
BLOCK_RECORD
  5
1
330
0
100
AcDbSymbolTable
 70
    60
  0
BLOCK_RECORD
  5
1F
330
1
100
AcDbSymbolTableRecord
100
AcDbBlockTableRecord
  2
*MODEL_SPACE
  0
BLOCK_RECORD
  5
1B
330
1
100
AcDbSymbolTableRecord
100
AcDbBlockTableRecord
  2
*PAPER_SPACE
  0
BLOCK_RECORD
  5
3E
330
1
100
AcDbSymbolTableRecord
100
AcDbBlockTableRecord
  2
EDTIP_ARROW_S
  0
BLOCK_RECORD
  5
44
330
1
100
AcDbSymbolTableRecord
100
AcDbBlockTableRecord
  2
EDTIP_ARROW_E
  0
BLOCK_RECORD
  5
4A
330
1
100
AcDbSymbolTableRecord
100
AcDbBlockTableRecord
  2
EDTIP_BLACKDOT_S
  0
BLOCK_RECORD
  5
50
330
1
100
AcDbSymbolTableRecord
100
AcDbBlockTableRecord
  2
EDTIP_BLACKDOT_E
  0
BLOCK_RECORD
  5
56
330
1
100
AcDbSymbolTableRecord
100
AcDbBlockTableRecord
  2
EDTIP_ARCHITECT_S
  0
BLOCK_RECORD
  5
5C
330
1
100
AcDbSymbolTableRecord
100
AcDbBlockTableRecord
  2
EDTIP_ARCHITECT_E
  0
BLOCK_RECORD
  5
62
330
1
100
AcDbSymbolTableRecord
100
AcDbBlockTableRecord
  2
EDTIP_CIVIL_S
  0
BLOCK_RECORD
  5
68
330
1
100
AcDbSymbolTableRecord
100
AcDbBlockTableRecord
  2
EDTIP_CIVIL_E
  0
BLOCK_RECORD
  5
94
330
1
100
AcDbSymbolTableRecord
100
AcDbBlockTableRecord
  2
BLKF011
  0
BLOCK_RECORD
  5
B4
330
1
100
AcDbSymbolTableRecord
100
AcDbBlockTableRecord
  2
BLKF012
  0
BLOCK_RECORD
  5
F1
330
1
100
AcDbSymbolTableRecord
100
AcDbBlockTableRecord
  2
BLKF013
  0
BLOCK_RECORD
  5
167
330
1
100
AcDbSymbolTableRecord
100
AcDbBlockTableRecord
  2
BLKF014
  0
BLOCK_RECORD
  5
18C
330
1
100
AcDbSymbolTableRecord
100
AcDbBlockTableRecord
  2
BLKF015
  0
BLOCK_RECORD
  5
1A1
330
1
100
AcDbSymbolTableRecord
100
AcDbBlockTableRecord
  2
BLKF016
  0
BLOCK_RECORD
  5
1C6
330
1
100
AcDbSymbolTableRecord
100
AcDbBlockTableRecord
  2
BLKF017
  0
BLOCK_RECORD
  5
1D3
330
1
100
AcDbSymbolTableRecord
100
AcDbBlockTableRecord
  2
BLKF018
  0
BLOCK_RECORD
  5
1E4
330
1
100
AcDbSymbolTableRecord
100
AcDbBlockTableRecord
  2
BLKF019
  0
BLOCK_RECORD
  5
1F6
330
1
100
AcDbSymbolTableRecord
100
AcDbBlockTableRecord
  2
BLKF020
  0
BLOCK_RECORD
  5
205
330
1
100
AcDbSymbolTableRecord
100
AcDbBlockTableRecord
  2
BLKF021
  0
BLOCK_RECORD
  5
22C
330
1
100
AcDbSymbolTableRecord
100
AcDbBlockTableRecord
  2
BLKF022
  0
BLOCK_RECORD
  5
248
330
1
100
AcDbSymbolTableRecord
100
AcDbBlockTableRecord
  2
BLKF023
  0
BLOCK_RECORD
  5
26D
330
1
100
AcDbSymbolTableRecord
100
AcDbBlockTableRecord
  2
BLKF024
  0
BLOCK_RECORD
  5
291
330
1
100
AcDbSymbolTableRecord
100
AcDbBlockTableRecord
  2
BLKF025
  0
BLOCK_RECORD
  5
2BD
330
1
100
AcDbSymbolTableRecord
100
AcDbBlockTableRecord
  2
BLKF026
  0
BLOCK_RECORD
  5
2DB
330
1
100
AcDbSymbolTableRecord
100
AcDbBlockTableRecord
  2
BLKF027
  0
BLOCK_RECORD
  5
30C
330
1
100
AcDbSymbolTableRecord
100
AcDbBlockTableRecord
  2
BLKF028
  0
BLOCK_RECORD
  5
31A
330
1
100
AcDbSymbolTableRecord
100
AcDbBlockTableRecord
  2
BLKF029
  0
BLOCK_RECORD
  5
328
330
1
100
AcDbSymbolTableRecord
100
AcDbBlockTableRecord
  2
BLKF030
  0
BLOCK_RECORD
  5
348
330
1
100
AcDbSymbolTableRecord
100
AcDbBlockTableRecord
  2
BLKF031
  0
BLOCK_RECORD
  5
357
330
1
100
AcDbSymbolTableRecord
100
AcDbBlockTableRecord
  2
BLKF032
  0
BLOCK_RECORD
  5
3AB
330
1
100
AcDbSymbolTableRecord
100
AcDbBlockTableRecord
  2
BLKF033
  0
BLOCK_RECORD
  5
3DC
330
1
100
AcDbSymbolTableRecord
100
AcDbBlockTableRecord
  2
BLKF034
  0
BLOCK_RECORD
  5
3EB
330
1
100
AcDbSymbolTableRecord
100
AcDbBlockTableRecord
  2
BLKF035
  0
BLOCK_RECORD
  5
3FA
330
1
100
AcDbSymbolTableRecord
100
AcDbBlockTableRecord
  2
BLKF036
  0
BLOCK_RECORD
  5
40E
330
1
100
AcDbSymbolTableRecord
100
AcDbBlockTableRecord
  2
BLKF037
  0
BLOCK_RECORD
  5
41D
330
1
100
AcDbSymbolTableRecord
100
AcDbBlockTableRecord
  2
BLKF038
  0
BLOCK_RECORD
  5
42C
330
1
100
AcDbSymbolTableRecord
100
AcDbBlockTableRecord
  2
BLKF039
  0
BLOCK_RECORD
  5
44B
330
1
100
AcDbSymbolTableRecord
100
AcDbBlockTableRecord
  2
BLKF040
  0
BLOCK_RECORD
  5
469
330
1
100
AcDbSymbolTableRecord
100
AcDbBlockTableRecord
  2
BLKF041
  0
BLOCK_RECORD
  5
49D
330
1
100
AcDbSymbolTableRecord
100
AcDbBlockTableRecord
  2
BLKF042
  0
BLOCK_RECORD
  5
4BC
330
1
100
AcDbSymbolTableRecord
100
AcDbBlockTableRecord
  2
BLKF043
  0
BLOCK_RECORD
  5
4CF
330
1
100
AcDbSymbolTableRecord
100
AcDbBlockTableRecord
  2
BLKF044
  0
BLOCK_RECORD
  5
503
330
1
100
AcDbSymbolTableRecord
100
AcDbBlockTableRecord
  2
BLKF045
  0
BLOCK_RECORD
  5
5E9
330
1
100
AcDbSymbolTableRecord
100
AcDbBlockTableRecord
  2
BLKF046
  0
BLOCK_RECORD
  5
602
330
1
100
AcDbSymbolTableRecord
100
AcDbBlockTableRecord
  2
BLKF047
  0
BLOCK_RECORD
  5
618
330
1
100
AcDbSymbolTableRecord
100
AcDbBlockTableRecord
  2
BLKF048
  0
BLOCK_RECORD
  5
656
330
1
100
AcDbSymbolTableRecord
100
AcDbBlockTableRecord
  2
BLKF049
  0
BLOCK_RECORD
  5
66F
330
1
100
AcDbSymbolTableRecord
100
AcDbBlockTableRecord
  2
BLKF050
  0
BLOCK_RECORD
  5
685
330
1
100
AcDbSymbolTableRecord
100
AcDbBlockTableRecord
  2
BLKF051
  0
BLOCK_RECORD
  5
6DE
330
1
100
AcDbSymbolTableRecord
100
AcDbBlockTableRecord
  2
BLKF052
  0
BLOCK_RECORD
  5
6F1
330
1
100
AcDbSymbolTableRecord
100
AcDbBlockTableRecord
  2
BLKF053
  0
BLOCK_RECORD
  5
738
330
1
100
AcDbSymbolTableRecord
100
AcDbBlockTableRecord
  2
BLKF054
  0
BLOCK_RECORD
  5
746
330
1
100
AcDbSymbolTableRecord
100
AcDbBlockTableRecord
  2
BLKF055
  0
BLOCK_RECORD
  5
756
330
1
100
AcDbSymbolTableRecord
100
AcDbBlockTableRecord
  2
BLKF056
  0
BLOCK_RECORD
  5
764
330
1
100
AcDbSymbolTableRecord
100
AcDbBlockTableRecord
  2
BLKF057
  0
BLOCK_RECORD
  5
772
330
1
100
AcDbSymbolTableRecord
100
AcDbBlockTableRecord
  2
BLKF058
  0
BLOCK_RECORD
  5
780
330
1
100
AcDbSymbolTableRecord
100
AcDbBlockTableRecord
  2
BLKF059
  0
BLOCK_RECORD
  5
78E
330
1
100
AcDbSymbolTableRecord
100
AcDbBlockTableRecord
  2
BLKF060
  0
BLOCK_RECORD
  5
79C
330
1
100
AcDbSymbolTableRecord
100
AcDbBlockTableRecord
  2
BLKF061
  0
ENDTAB
  0
ENDSEC
  0
SECTION
  2
BLOCKS
  0
BLOCK
  5
20
330
1F
100
AcDbEntity
  8
0
100
AcDbBlockBegin
  2
*MODEL_SPACE
 70
     0
 71
     0
 10
0.0
 20
0.0
 30
0.0
  3
*MODEL_SPACE
  1

  0
ENDBLK
  5
21
330
1F
100
AcDbEntity
  8
0
100
AcDbBlockEnd
  0
BLOCK
  5
1C
330
1B
100
AcDbEntity
 67
     1
  8
0
100
AcDbBlockBegin
  2
*PAPER_SPACE
 70
     0
 71
     0
 10
0.0
 20
0.0
 30
0.0
  3
*PAPER_SPACE
  1

  0
ENDBLK
  5
1D
330
1B
100
AcDbEntity
 67
     1
  8
0
100
AcDbBlockEnd
  0
BLOCK
  5
3F
330
3E
100
AcDbEntity
  8
0
100
AcDbBlockBegin
  2
EDTIP_ARROW_S
 70
     0
 71
     0
 10
0.0
 20
0.0
 30
0.0
  3
EDTIP_ARROW_S
  1

  0
LINE
  5
41
330
3E
100
AcDbEntity
  8
0
  6
CONTINUOUS
 62
     0
100
AcDbLine
 10
0.0
 20
0.0
 30
0.0
 11
-1.0
 21
0.0
 31
0.0
  0
LINE
  5
42
330
3E
100
AcDbEntity
  8
0
  6
CONTINUOUS
 62
     0
100
AcDbLine
 10
0.0
 20
0.0
 30
0.0
 11
-0.965926
 21
0.258819
 31
0.0
  0
LINE
  5
43
330
3E
100
AcDbEntity
  8
0
  6
CONTINUOUS
 62
     0
100
AcDbLine
 10
0.0
 20
0.0
 30
0.0
 11
-0.965926
 21
-0.258819
 31
0.0
  0
ENDBLK
  5
40
330
3E
100
AcDbEntity
  8
0
100
AcDbBlockEnd
  0
BLOCK
  5
45
330
44
100
AcDbEntity
  8
0
100
AcDbBlockBegin
  2
EDTIP_ARROW_E
 70
     0
 71
     0
 10
0.0
 20
0.0
 30
0.0
  3
EDTIP_ARROW_E
  1

  0
LINE
  5
47
330
44
100
AcDbEntity
  8
0
  6
CONTINUOUS
 62
     0
100
AcDbLine
 10
0.0
 20
0.0
 30
0.0
 11
-1.0
 21
0.0
 31
0.0
  0
LINE
  5
48
330
44
100
AcDbEntity
  8
0
  6
CONTINUOUS
 62
     0
100
AcDbLine
 10
0.0
 20
0.0
 30
0.0
 11
-0.965926
 21
-0.258819
 31
0.0
  0
LINE
  5
49
330
44
100
AcDbEntity
  8
0
  6
CONTINUOUS
 62
     0
100
AcDbLine
 10
0.0
 20
0.0
 30
0.0
 11
-0.965926
 21
0.258819
 31
0.0
  0
ENDBLK
  5
46
330
44
100
AcDbEntity
  8
0
100
AcDbBlockEnd
  0
BLOCK
  5
4B
330
4A
100
AcDbEntity
  8
0
100
AcDbBlockBegin
  2
EDTIP_BLACKDOT_S
 70
     0
 71
     0
 10
0.0
 20
0.0
 30
0.0
  3
EDTIP_BLACKDOT_S
  1

  0
LINE
  5
4D
330
4A
100
AcDbEntity
  8
0
  6
CONTINUOUS
 62
     0
100
AcDbLine
 10
0.0
 20
0.0
 30
0.0
 11
-1.0
 21
0.0
 31
0.0
  0
CIRCLE
  5
4E
330
4A
100
AcDbEntity
  8
0
  6
CONTINUOUS
 62
     0
100
AcDbCircle
 10
0.0
 20
0.0
 30
0.0
 40
0.5
  0
CIRCLE
  5
4F
330
4A
100
AcDbEntity
  8
0
  6
CONTINUOUS
 62
     0
100
AcDbCircle
 10
0.0
 20
0.0
 30
0.0
 40
0.25
  0
ENDBLK
  5
4C
330
4A
100
AcDbEntity
  8
0
100
AcDbBlockEnd
  0
BLOCK
  5
51
330
50
100
AcDbEntity
  8
0
100
AcDbBlockBegin
  2
EDTIP_BLACKDOT_E
 70
     0
 71
     0
 10
0.0
 20
0.0
 30
0.0
  3
EDTIP_BLACKDOT_E
  1

  0
LINE
  5
53
330
50
100
AcDbEntity
  8
0
  6
CONTINUOUS
 62
     0
100
AcDbLine
 10
0.0
 20
0.0
 30
0.0
 11
-1.0
 21
0.0
 31
0.0
  0
CIRCLE
  5
54
330
50
100
AcDbEntity
  8
0
  6
CONTINUOUS
 62
     0
100
AcDbCircle
 10
0.0
 20
0.0
 30
0.0
 40
0.5
  0
CIRCLE
  5
55
330
50
100
AcDbEntity
  8
0
  6
CONTINUOUS
 62
     0
100
AcDbCircle
 10
0.0
 20
0.0
 30
0.0
 40
0.25
  0
ENDBLK
  5
52
330
50
100
AcDbEntity
  8
0
100
AcDbBlockEnd
  0
BLOCK
  5
57
330
56
100
AcDbEntity
  8
0
100
AcDbBlockBegin
  2
EDTIP_ARCHITECT_S
 70
     0
 71
     0
 10
0.0
 20
0.0
 30
0.0
  3
EDTIP_ARCHITECT_S
  1

  0
LINE
  5
59
330
56
100
AcDbEntity
  8
0
  6
CONTINUOUS
 62
     0
100
AcDbLine
 10
0.0
 20
0.0
 30
0.0
 11
-1.0
 21
0.0
 31
0.0
  0
LINE
  5
5A
330
56
100
AcDbEntity
  8
0
  6
CONTINUOUS
 62
     0
100
AcDbLine
 10
0.0
 20
0.0
 30
0.0
 11
-0.707107
 21
-0.707107
 31
0.0
  0
LINE
  5
5B
330
56
100
AcDbEntity
  8
0
  6
CONTINUOUS
 62
     0
100
AcDbLine
 10
0.0
 20
0.0
 30
0.0
 11
0.707107
 21
0.707107
 31
0.0
  0
ENDBLK
  5
58
330
56
100
AcDbEntity
  8
0
100
AcDbBlockEnd
  0
BLOCK
  5
5D
330
5C
100
AcDbEntity
  8
0
100
AcDbBlockBegin
  2
EDTIP_ARCHITECT_E
 70
     0
 71
     0
 10
0.0
 20
0.0
 30
0.0
  3
EDTIP_ARCHITECT_E
  1

  0
LINE
  5
5F
330
5C
100
AcDbEntity
  8
0
  6
CONTINUOUS
 62
     0
100
AcDbLine
 10
0.0
 20
0.0
 30
0.0
 11
-1.0
 21
0.0
 31
0.0
  0
LINE
  5
60
330
5C
100
AcDbEntity
  8
0
  6
CONTINUOUS
 62
     0
100
AcDbLine
 10
0.0
 20
0.0
 30
0.0
 11
-0.707107
 21
-0.707107
 31
0.0
  0
LINE
  5
61
330
5C
100
AcDbEntity
  8
0
  6
CONTINUOUS
 62
     0
100
AcDbLine
 10
0.0
 20
0.0
 30
0.0
 11
0.707107
 21
0.707107
 31
0.0
  0
ENDBLK
  5
5E
330
5C
100
AcDbEntity
  8
0
100
AcDbBlockEnd
  0
BLOCK
  5
63
330
62
100
AcDbEntity
  8
0
100
AcDbBlockBegin
  2
EDTIP_CIVIL_S
 70
     0
 71
     0
 10
0.0
 20
0.0
 30
0.0
  3
EDTIP_CIVIL_S
  1

  0
LINE
  5
65
330
62
100
AcDbEntity
  8
0
  6
CONTINUOUS
 62
     0
100
AcDbLine
 10
0.0
 20
0.0
 30
0.0
 11
-1.0
 21
0.0
 31
0.0
  0
LINE
  5
66
330
62
100
AcDbEntity
  8
0
  6
CONTINUOUS
 62
     0
100
AcDbLine
 10
0.0
 20
-0.083333
 30
0.0
 11
-1.0
 21
-0.083333
 31
0.0
  0
LINE
  5
67
330
62
100
AcDbEntity
  8
0
  6
CONTINUOUS
 62
     0
100
AcDbLine
 10
0.0
 20
-0.166667
 30
0.0
 11
-1.0
 21
-0.166667
 31
0.0
  0
ENDBLK
  5
64
330
62
100
AcDbEntity
  8
0
100
AcDbBlockEnd
  0
BLOCK
  5
69
330
68
100
AcDbEntity
  8
0
100
AcDbBlockBegin
  2
EDTIP_CIVIL_E
 70
     0
 71
     0
 10
0.0
 20
0.0
 30
0.0
  3
EDTIP_CIVIL_E
  1

  0
LINE
  5
6B
330
68
100
AcDbEntity
  8
0
  6
CONTINUOUS
 62
     0
100
AcDbLine
 10
0.0
 20
0.0
 30
0.0
 11
-1.0
 21
0.0
 31
0.0
  0
LINE
  5
6C
330
68
100
AcDbEntity
  8
0
  6
CONTINUOUS
 62
     0
100
AcDbLine
 10
0.0
 20
0.083333
 30
0.0
 11
-1.0
 21
0.083333
 31
0.0
  0
LINE
  5
6D
330
68
100
AcDbEntity
  8
0
  6
CONTINUOUS
 62
     0
100
AcDbLine
 10
0.0
 20
0.166667
 30
0.0
 11
-1.0
 21
0.166667
 31
0.0
  0
ENDBLK
  5
6A
330
68
100
AcDbEntity
  8
0
100
AcDbBlockEnd
  0
BLOCK
  5
95
330
94
100
AcDbEntity
  8
0
100
AcDbBlockBegin
  2
BLKF011
 70
     0
 71
     0
 10
0.0
 20
0.0
 30
0.0
  3
BLKF011
  1

  0
LINE
  5
98
330
94
100
AcDbEntity
  8
0
  6
CONTINUOUS
 62
     3
100
AcDbLine
 10
58.652489
 20
114.553317
 30
0.0
 11
58.615272
 21
114.553483
 31
0.0
  0
LINE
  5
99
330
94
100
AcDbEntity
  8
0
  6
CONTINUOUS
 62
     3
100
AcDbLine
 10
58.615272
 20
114.553483
 30
0.0
 11
58.596664
 21
114.55358
 31
0.0
  0
LINE
  5
9A
330
94
100
AcDbEntity
  8
0
  6
CONTINUOUS
 62
     3
100
AcDbLine
 10
58.596664
 20
114.55358
 30
0.0
 11
58.578055
 21
114.553694
 31
0.0
  0
LINE
  5
9B
330
94
100
AcDbEntity
  8
0
  6
CONTINUOUS
 62
     3
100
AcDbLine
 10
58.578055
 20
114.553694
 30
0.0
 11
58.559448
 21
114.553831
 31
0.0
  0
LINE
  5
9C
330
94
100
AcDbEntity
  8
0
  6
CONTINUOUS
 62
     3
100
AcDbLine
 10
58.559448
 20
114.553831
 30
0.0
 11
58.54084
 21
114.553995
 31
0.0
  0
LINE
  5
9D
330
94
100
AcDbEntity
  8
0
  6
CONTINUOUS
 62
     3
100
AcDbLine
 10
58.54084
 20
114.553995
 30
0.0
 11
58.522233
 21
114.554192
 31
0.0
  0
LINE
  5
9E
330
94
100
AcDbEntity
  8
0
  6
CONTINUOUS
 62
     3
100
AcDbLine
 10
58.522233
 20
114.554192
 30
0.0
 11
58.503626
 21
114.554429
 31
0.0
  0
LINE
  5
9F
330
94
100
AcDbEntity
  8
0
  6
CONTINUOUS
 62
     3
100
AcDbLine
 10
58.503626
 20
114.554429
 30
0.0
 11
58.487114
 21
114.554675
 31
0.0
  0
LINE
  5
A0
330
94
100
AcDbEntity
  8
0
  6
CONTINUOUS
 62
     3
100
AcDbLine
 10
58.487114
 20
114.554675
 30
0.0
 11
58.470602
 21
114.554956
 31
0.0
  0
LINE
  5
A1
330
94
100
AcDbEntity
  8
0
  6
CONTINUOUS
 62
     3
100
AcDbLine
 10
58.470602
 20
114.554956
 30
0.0
 11
58.45409
 21
114.555268
 31
0.0
  0
LINE
  5
A2
330
94
100
AcDbEntity
  8
0
  6
CONTINUOUS
 62
     3
100
AcDbLine
 10
58.45409
 20
114.555268
 30
0.0
 11
58.43758
 21
114.555613
 31
0.0
  0
LINE
  5
A3
330
94
100
AcDbEntity
  8
0
  6
CONTINUOUS
 62
     3
100
AcDbLine
 10
58.43758
 20
114.555613
 30
0.0
 11
58.421069
 21
114.555987
 31
0.0
  0
LINE
  5
A4
330
94
100
AcDbEntity
  8
0
  6
CONTINUOUS
 62
     3
100
AcDbLine
 10
58.421069
 20
114.555987
 30
0.0
 11
58.40456
 21
114.55639
 31
0.0
  0
LINE
  5
A5
330
94
100
AcDbEntity
  8
0
  6
CONTINUOUS
 62
     3
100
AcDbLine
 10
58.40456
 20
114.55639
 30
0.0
 11
58.388051
 21
114.55682
 31
0.0
  0
LINE
  5
A6
330
94
100
AcDbEntity
  8
0
  6
CONTINUOUS
 62
     3
100
AcDbLine
 10
58.388051
 20
114.55682
 30
0.0
 11
58.371542
 21
114.557277
 31
0.0
  0
LINE
  5
A7
330
94
100
AcDbEntity
  8
0
  6
CONTINUOUS
 62
     3
100
AcDbLine
 10
58.371542
 20
114.557277
 30
0.0
 11
58.358977
 21
114.557641
 31
0.0
  0
LINE
  5
A8
330
94
100
AcDbEntity
  8
0
  6
CONTINUOUS
 62
     3
100
AcDbLine
 10
58.358977
 20
114.557641
 30
0.0
 11
58.346412
 21
114.558021
 31
0.0
  0
LINE
  5
A9
330
94
100
AcDbEntity
  8
0
  6
CONTINUOUS
 62
     3
100
AcDbLine
 10
58.346412
 20
114.558021
 30
0.0
 11
58.333848
 21
114.558415
 31
0.0
  0
LINE
  5
AA
330
94
100
AcDbEntity
  8
0
  6
CONTINUOUS
 62
     3
100
AcDbLine
 10
58.333848
 20
114.558415
 30
0.0
 11
58.321284
 21
114.558824
 31
0.0
  0
LINE
  5
AB
330
94
100
AcDbEntity
  8
0
  6
CONTINUOUS
 62
     3
100
AcDbLine
 10
58.321284
 20
114.558824
 30
0.0
 11
58.308721
 21
114.559248
 31
0.0
  0
LINE
  5
AC
330
94
100
AcDbEntity
  8
0
  6
CONTINUOUS
 62
     3
100
AcDbLine
 10
58.308721
 20
114.559248
 30
0.0
 11
58.296158
 21
114.559688
 31
0.0
  0
LINE
  5
AD
330
94
100
AcDbEntity
  8
0
  6
CONTINUOUS
 62
     3
100
AcDbLine
 10
58.296158
 20
114.559688
 30
0.0
 11
58.283596
 21
114.560144
 31
0.0
  0
LINE
  5
AE
330
94
100
AcDbEntity
  8
0
  6
CONTINUOUS
 62
     3
100
AcDbLine
 10
58.283596
 20
114.560144
 30
0.0
 11
58.271034
 21
114.560616
 31
0.0
  0
LINE
  5
AF
330
94
100
AcDbEntity
  8
0
  6
CONTINUOUS
 62
     3
100
AcDbLine
 10
58.271034
 20
114.560616
 30
0.0
 11
58.256649
 21
114.561176
 31
0.0
  0
LINE
  5
B0
330
94
100
AcDbEntity
  8
0
  6
CONTINUOUS
 62
     3
100
AcDbLine
 10
58.256649
 20
114.561176
 30
0.0
 11
58.242266
 21
114.561757
 31
0.0
  0
LINE
  5
B1
330
94
100
AcDbEntity
  8
0
  6
CONTINUOUS
 62
     3
100
AcDbLine
 10
58.242266
 20
114.561757
 30
0.0
 11
58.227883
 21
114.562359
 31
0.0
  0
LINE
  5
B2
330
94
100
AcDbEntity
  8
0
  6
CONTINUOUS
 62
     3
100
AcDbLine
 10
58.227883
 20
114.562359
 30
0.0
 11
58.213501
 21
114.562982
 31
0.0
  0
LINE
  5
B3
330
94
100
AcDbEntity
  8
0
  6
CONTINUOUS
 62
     3
100
AcDbLine
 10
58.213501
 20
114.562982
 30
0.0
 11
58.208241
 21
114.563215
 31
0.0
  0
ENDBLK
  5
96
330
94
100
AcDbEntity
  8
0
100
AcDbBlockEnd
  0
BLOCK
  5
B5
330
B4
100
AcDbEntity
  8
0
100
AcDbBlockBegin
  2
BLKF012
 70
     0
 71
     0
 10
0.0
 20
0.0
 30
0.0
  3
BLKF012
  1

  0
LINE
  5
B8
330
B4
100
AcDbEntity
  8
0
  6
CONTINUOUS
 62
     3
100
AcDbLine
 10
59.101804
 20
114.563442
 30
0.0
 11
59.102474
 21
114.563472
 31
0.0
  0
LINE
  5
B9
330
B4
100
AcDbEntity
  8
0
  6
CONTINUOUS
 62
     3
100
AcDbLine
 10
59.102474
 20
114.563472
 30
0.0
 11
59.098122
 21
114.563282
 31
0.0
  0
LINE
  5
BA
330
B4
100
AcDbEntity
  8
0
  6
CONTINUOUS
 62
     3
100
AcDbLine
 10
59.098122
 20
114.563282
 30
0.0
 11
59.087702
 21
114.562824
 31
0.0
  0
LINE
  5
BB
330
B4
100
AcDbEntity
  8
0
  6
CONTINUOUS
 62
     3
100
AcDbLine
 10
59.087702
 20
114.562824
 30
0.0
 11
59.075786
 21
114.562303
 31
0.0
  0
LINE
  5
BC
330
B4
100
AcDbEntity
  8
0
  6
CONTINUOUS
 62
     3
100
AcDbLine
 10
59.075786
 20
114.562303
 30
0.0
 11
59.068024
 21
114.561967
 31
0.0
  0
LINE
  5
BD
330
B4
100
AcDbEntity
  8
0
  6
CONTINUOUS
 62
     3
100
AcDbLine
 10
59.068024
 20
114.561967
 30
0.0
 11
59.060936
 21
114.561664
 31
0.0
  0
LINE
  5
BE
330
B4
100
AcDbEntity
  8
0
  6
CONTINUOUS
 62
     3
100
AcDbLine
 10
59.060936
 20
114.561664
 30
0.0
 11
59.054466
 21
114.56139
 31
0.0
  0
LINE
  5
BF
330
B4
100
AcDbEntity
  8
0
  6
CONTINUOUS
 62
     3
100
AcDbLine
 10
59.054466
 20
114.56139
 30
0.0
 11
59.048559
 21
114.561144
 31
0.0
  0
LINE
  5
C0
330
B4
100
AcDbEntity
  8
0
  6
CONTINUOUS
 62
     3
100
AcDbLine
 10
59.048559
 20
114.561144
 30
0.0
 11
59.04316
 21
114.560923
 31
0.0
  0
LINE
  5
C1
330
B4
100
AcDbEntity
  8
0
  6
CONTINUOUS
 62
     3
100
AcDbLine
 10
59.04316
 20
114.560923
 30
0.0
 11
59.038214
 21
114.560724
 31
0.0
  0
LINE
  5
C2
330
B4
100
AcDbEntity
  8
0
  6
CONTINUOUS
 62
     3
100
AcDbLine
 10
59.038214
 20
114.560724
 30
0.0
 11
59.033664
 21
114.560545
 31
0.0
  0
LINE
  5
C3
330
B4
100
AcDbEntity
  8
0
  6
CONTINUOUS
 62
     3
100
AcDbLine
 10
59.033664
 20
114.560545
 30
0.0
 11
59.029457
 21
114.560384
 31
0.0
  0
LINE
  5
C4
330
B4
100
AcDbEntity
  8
0
  6
CONTINUOUS
 62
     3
100
AcDbLine
 10
59.029457
 20
114.560384
 30
0.0
 11
59.025537
 21
114.560238
 31
0.0
  0
LINE
  5
C5
330
B4
100
AcDbEntity
  8
0
  6
CONTINUOUS
 62
     3
100
AcDbLine
 10
59.025537
 20
114.560238
 30
0.0
 11
59.021847
 21
114.560104
 31
0.0
  0
LINE
  5
C6
330
B4
100
AcDbEntity
  8
0
  6
CONTINUOUS
 62
     3
100
AcDbLine
 10
59.021847
 20
114.560104
 30
0.0
 11
59.014942
 21
114.559864
 31
0.0
  0
LINE
  5
C7
330
B4
100
AcDbEntity
  8
0
  6
CONTINUOUS
 62
     3
100
AcDbLine
 10
59.014942
 20
114.559864
 30
0.0
 11
59.008298
 21
114.559645
 31
0.0
  0
LINE
  5
C8
330
B4
100
AcDbEntity
  8
0
  6
CONTINUOUS
 62
     3
100
AcDbLine
 10
59.008298
 20
114.559645
 30
0.0
 11
59.001474
 21
114.559426
 31
0.0
  0
LINE
  5
C9
330
B4
100
AcDbEntity
  8
0
  6
CONTINUOUS
 62
     3
100
AcDbLine
 10
59.001474
 20
114.559426
 30
0.0
 11
58.989983
 21
114.559062
 31
0.0
  0
LINE
  5
CA
330
B4
100
AcDbEntity
  8
0
  6
CONTINUOUS
 62
     3
100
AcDbLine
 10
58.989983
 20
114.559062
 30
0.0
 11
58.977261
 21
114.558663
 31
0.0
  0
LINE
  5
CB
330
B4
100
AcDbEntity
  8
0
  6
CONTINUOUS
 62
     3
100
AcDbLine
 10
58.977261
 20
114.558663
 30
0.0
 11
58.963536
 21
114.558238
 31
0.0
  0
LINE
  5
CC
330
B4
100
AcDbEntity
  8
0
  6
CONTINUOUS
 62
     3
100
AcDbLine
 10
58.963536
 20
114.558238
 30
0.0
 11
58.956368
 21
114.55802
 31
0.0
  0
LINE
  5
CD
330
B4
100
AcDbEntity
  8
0
  6
CONTINUOUS
 62
     3
100
AcDbLine
 10
58.956368
 20
114.55802
 30
0.0
 11
58.949034
 21
114.557799
 31
0.0
  0
LINE
  5
CE
330
B4
100
AcDbEntity
  8
0
  6
CONTINUOUS
 62
     3
100
AcDbLine
 10
58.949034
 20
114.557799
 30
0.0
 11
58.941562
 21
114.557578
 31
0.0
  0
LINE
  5
CF
330
B4
100
AcDbEntity
  8
0
  6
CONTINUOUS
 62
     3
100
AcDbLine
 10
58.941562
 20
114.557578
 30
0.0
 11
58.93398
 21
114.557356
 31
0.0
  0
LINE
  5
D0
330
B4
100
AcDbEntity
  8
0
  6
CONTINUOUS
 62
     3
100
AcDbLine
 10
58.93398
 20
114.557356
 30
0.0
 11
58.926318
 21
114.557135
 31
0.0
  0
LINE
  5
D1
330
B4
100
AcDbEntity
  8
0
  6
CONTINUOUS
 62
     3
100
AcDbLine
 10
58.926318
 20
114.557135
 30
0.0
 11
58.918602
 21
114.556917
 31
0.0
  0
LINE
  5
D2
330
B4
100
AcDbEntity
  8
0
  6
CONTINUOUS
 62
     3
100
AcDbLine
 10
58.918602
 20
114.556917
 30
0.0
 11
58.910862
 21
114.556702
 31
0.0
  0
LINE
  5
D3
330
B4
100
AcDbEntity
  8
0
  6
CONTINUOUS
 62
     3
100
AcDbLine
 10
58.910862
 20
114.556702
 30
0.0
 11
58.903126
 21
114.556493
 31
0.0
  0
LINE
  5
D4
330
B4
100
AcDbEntity
  8
0
  6
CONTINUOUS
 62
     3
100
AcDbLine
 10
58.903126
 20
114.556493
 30
0.0
 11
58.895422
 21
114.55629
 31
0.0
  0
LINE
  5
D5
330
B4
100
AcDbEntity
  8
0
  6
CONTINUOUS
 62
     3
100
AcDbLine
 10
58.895422
 20
114.55629
 30
0.0
 11
58.887778
 21
114.556094
 31
0.0
  0
LINE
  5
D6
330
B4
100
AcDbEntity
  8
0
  6
CONTINUOUS
 62
     3
100
AcDbLine
 10
58.887778
 20
114.556094
 30
0.0
 11
58.878464
 21
114.555864
 31
0.0
  0
LINE
  5
D7
330
B4
100
AcDbEntity
  8
0
  6
CONTINUOUS
 62
     3
100
AcDbLine
 10
58.878464
 20
114.555864
 30
0.0
 11
58.869275
 21
114.555648
 31
0.0
  0
LINE
  5
D8
330
B4
100
AcDbEntity
  8
0
  6
CONTINUOUS
 62
     3
100
AcDbLine
 10
58.869275
 20
114.555648
 30
0.0
 11
58.860198
 21
114.555443
 31
0.0
  0
LINE
  5
D9
330
B4
100
AcDbEntity
  8
0
  6
CONTINUOUS
 62
     3
100
AcDbLine
 10
58.860198
 20
114.555443
 30
0.0
 11
58.851223
 21
114.555251
 31
0.0
  0
LINE
  5
DA
330
B4
100
AcDbEntity
  8
0
  6
CONTINUOUS
 62
     3
100
AcDbLine
 10
58.851223
 20
114.555251
 30
0.0
 11
58.842339
 21
114.555071
 31
0.0
  0
LINE
  5
DB
330
B4
100
AcDbEntity
  8
0
  6
CONTINUOUS
 62
     3
100
AcDbLine
 10
58.842339
 20
114.555071
 30
0.0
 11
58.833536
 21
114.554903
 31
0.0
  0
LINE
  5
DC
330
B4
100
AcDbEntity
  8
0
  6
CONTINUOUS
 62
     3
100
AcDbLine
 10
58.833536
 20
114.554903
 30
0.0
 11
58.824802
 21
114.554745
 31
0.0
  0
LINE
  5
DD
330
B4
100
AcDbEntity
  8
0
  6
CONTINUOUS
 62
     3
100
AcDbLine
 10
58.824802
 20
114.554745
 30
0.0
 11
58.816125
 21
114.554598
 31
0.0
  0
LINE
  5
DE
330
B4
100
AcDbEntity
  8
0
  6
CONTINUOUS
 62
     3
100
AcDbLine
 10
58.816125
 20
114.554598
 30
0.0
 11
58.807497
 21
114.554462
 31
0.0
  0
LINE
  5
DF
330
B4
100
AcDbEntity
  8
0
  6
CONTINUOUS
 62
     3
100
AcDbLine
 10
58.807497
 20
114.554462
 30
0.0
 11
58.798904
 21
114.554336
 31
0.0
  0
LINE
  5
E0
330
B4
100
AcDbEntity
  8
0
  6
CONTINUOUS
 62
     3
100
AcDbLine
 10
58.798904
 20
114.554336
 30
0.0
 11
58.790337
 21
114.554219
 31
0.0
  0
LINE
  5
E1
330
B4
100
AcDbEntity
  8
0
  6
CONTINUOUS
 62
     3
100
AcDbLine
 10
58.790337
 20
114.554219
 30
0.0
 11
58.781784
 21
114.554112
 31
0.0
  0
LINE
  5
E2
330
B4
100
AcDbEntity
  8
0
  6
CONTINUOUS
 62
     3
100
AcDbLine
 10
58.781784
 20
114.554112
 30
0.0
 11
58.773235
 21
114.554014
 31
0.0
  0
LINE
  5
E3
330
B4
100
AcDbEntity
  8
0
  6
CONTINUOUS
 62
     3
100
AcDbLine
 10
58.773235
 20
114.554014
 30
0.0
 11
58.764678
 21
114.553925
 31
0.0
  0
LINE
  5
E4
330
B4
100
AcDbEntity
  8
0
  6
CONTINUOUS
 62
     3
100
AcDbLine
 10
58.764678
 20
114.553925
 30
0.0
 11
58.756103
 21
114.553844
 31
0.0
  0
LINE
  5
E5
330
B4
100
AcDbEntity
  8
0
  6
CONTINUOUS
 62
     3
100
AcDbLine
 10
58.756103
 20
114.553844
 30
0.0
 11
58.747499
 21
114.55377
 31
0.0
  0
LINE
  5
E6
330
B4
100
AcDbEntity
  8
0
  6
CONTINUOUS
 62
     3
100
AcDbLine
 10
58.747499
 20
114.55377
 30
0.0
 11
58.74165
 21
114.553725
 31
0.0
  0
LINE
  5
E7
330
B4
100
AcDbEntity
  8
0
  6
CONTINUOUS
 62
     3
100
AcDbLine
 10
58.74165
 20
114.553725
 30
0.0
 11
58.735784
 21
114.553683
 31
0.0
  0
LINE
  5
E8
330
B4
100
AcDbEntity
  8
0
  6
CONTINUOUS
 62
     3
100
AcDbLine
 10
58.735784
 20
114.553683
 30
0.0
 11
58.729902
 21
114.553644
 31
0.0
  0
LINE
  5
E9
330
B4
100
AcDbEntity
  8
0
  6
CONTINUOUS
 62
     3
100
AcDbLine
 10
58.729902
 20
114.553644
 30
0.0
 11
58.724005
 21
114.553608
 31
0.0
  0
LINE
  5
EA
330
B4
100
AcDbEntity
  8
0
  6
CONTINUOUS
 62
     3
100
AcDbLine
 10
58.724005
 20
114.553608
 30
0.0
 11
58.718094
 21
114.553575
 31
0.0
  0
LINE
  5
EB
330
B4
100
AcDbEntity
  8
0
  6
CONTINUOUS
 62
     3
100
AcDbLine
 10
58.718094
 20
114.553575
 30
0.0
 11
58.712171
 21
114.553544
 31
0.0
  0
LINE
  5
EC
330
B4
100
AcDbEntity
  8
0
  6
CONTINUOUS
 62
     3
100
AcDbLine
 10
58.712171
 20
114.553544
 30
0.0
 11
58.70029
 21
114.553488
 31
0.0
  0
LINE
  5
ED
330
B4
100
AcDbEntity
  8
0
  6
CONTINUOUS
 62
     3
100
AcDbLine
 10
58.70029
 20
114.553488
 30
0.0
 11
58.688372
 21
114.553439
 31
0.0
  0
LINE
  5
EE
330
B4
100
AcDbEntity
  8
0
  6
CONTINUOUS
 62
     3
100
AcDbLine
 10
58.688372
 20
114.553439
 30
0.0
 11
58.676426
 21
114.553395
 31
0.0
  0
LINE
  5
EF
330
B4
100
AcDbEntity
  8
0
  6
CONTINUOUS
 62
     3
100
AcDbLine
 10
58.676426
 20
114.553395
 30
0.0
 11
58.664462
 21
114.553355
 31
0.0
  0
LINE
  5
F0
330
B4
100
AcDbEntity
  8
0
  6
CONTINUOUS
 62
     3
100
AcDbLine
 10
58.664462
 20
114.553355
 30
0.0
 11
58.652489
 21
114.553317
 31
0.0
  0
ENDBLK
  5
B6
330
B4
100
AcDbEntity
  8
0
100
AcDbBlockEnd
  0
BLOCK
  5
F2
330
F1
100
AcDbEntity
  8
0
100
AcDbBlockBegin
  2
BLKF013
 70
     0
 71
     0
 10
0.0
 20
0.0
 30
0.0
  3
BLKF013
  1

  0
LINE
  5
F5
330
F1
100
AcDbEntity
  8
0
  6
CONTINUOUS
 62
     3
100
AcDbLine
 10
58.20824
 20
94.61373
 30
0.0
 11
58.205484
 21
94.613607
 31
0.0
  0
LINE
  5
F6
330
F1
100
AcDbEntity
  8
0
  6
CONTINUOUS
 62
     3
100
AcDbLine
 10
58.205484
 20
94.613607
 30
0.0
 11
58.20364
 21
94.61352
 31
0.0
  0
LINE
  5
F7
330
F1
100
AcDbEntity
  8
0
  6
CONTINUOUS
 62
     3
100
AcDbLine
 10
58.20364
 20
94.61352
 30
0.0
 11
58.213257
 21
94.613934
 31
0.0
  0
LINE
  5
F8
330
F1
100
AcDbEntity
  8
0
  6
CONTINUOUS
 62
     3
100
AcDbLine
 10
58.213257
 20
94.613934
 30
0.0
 11
58.229563
 21
94.614637
 31
0.0
  0
LINE
  5
F9
330
F1
100
AcDbEntity
  8
0
  6
CONTINUOUS
 62
     3
100
AcDbLine
 10
58.229563
 20
94.614637
 30
0.0
 11
58.247788
 21
94.615414
 31
0.0
  0
LINE
  5
FA
330
F1
100
AcDbEntity
  8
0
  6
CONTINUOUS
 62
     3
100
AcDbLine
 10
58.247788
 20
94.615414
 30
0.0
 11
58.264596
 21
94.616115
 31
0.0
  0
LINE
  5
FB
330
F1
100
AcDbEntity
  8
0
  6
CONTINUOUS
 62
     3
100
AcDbLine
 10
58.264596
 20
94.616115
 30
0.0
 11
58.278798
 21
94.616686
 31
0.0
  0
LINE
  5
FC
330
F1
100
AcDbEntity
  8
0
  6
CONTINUOUS
 62
     3
100
AcDbLine
 10
58.278798
 20
94.616686
 30
0.0
 11
58.290866
 21
94.61715
 31
0.0
  0
LINE
  5
FD
330
F1
100
AcDbEntity
  8
0
  6
CONTINUOUS
 62
     3
100
AcDbLine
 10
58.290866
 20
94.61715
 30
0.0
 11
58.30127
 21
94.617528
 31
0.0
  0
LINE
  5
FE
330
F1
100
AcDbEntity
  8
0
  6
CONTINUOUS
 62
     3
100
AcDbLine
 10
58.30127
 20
94.617528
 30
0.0
 11
58.310481
 21
94.61784
 31
0.0
  0
LINE
  5
FF
330
F1
100
AcDbEntity
  8
0
  6
CONTINUOUS
 62
     3
100
AcDbLine
 10
58.310481
 20
94.61784
 30
0.0
 11
58.318969
 21
94.618107
 31
0.0
  0
LINE
  5
100
330
F1
100
AcDbEntity
  8
0
  6
CONTINUOUS
 62
     3
100
AcDbLine
 10
58.318969
 20
94.618107
 30
0.0
 11
58.327205
 21
94.618351
 31
0.0
  0
LINE
  5
101
330
F1
100
AcDbEntity
  8
0
  6
CONTINUOUS
 62
     3
100
AcDbLine
 10
58.327205
 20
94.618351
 30
0.0
 11
58.33566
 21
94.618593
 31
0.0
  0
LINE
  5
102
330
F1
100
AcDbEntity
  8
0
  6
CONTINUOUS
 62
     3
100
AcDbLine
 10
58.33566
 20
94.618593
 30
0.0
 11
58.348575
 21
94.618958
 31
0.0
  0
LINE
  5
103
330
F1
100
AcDbEntity
  8
0
  6
CONTINUOUS
 62
     3
100
AcDbLine
 10
58.348575
 20
94.618958
 30
0.0
 11
58.362641
 21
94.619351
 31
0.0
  0
LINE
  5
104
330
F1
100
AcDbEntity
  8
0
  6
CONTINUOUS
 62
     3
100
AcDbLine
 10
58.362641
 20
94.619351
 30
0.0
 11
58.377646
 21
94.619762
 31
0.0
  0
LINE
  5
105
330
F1
100
AcDbEntity
  8
0
  6
CONTINUOUS
 62
     3
100
AcDbLine
 10
58.377646
 20
94.619762
 30
0.0
 11
58.393377
 21
94.620182
 31
0.0
  0
LINE
  5
106
330
F1
100
AcDbEntity
  8
0
  6
CONTINUOUS
 62
     3
100
AcDbLine
 10
58.393377
 20
94.620182
 30
0.0
 11
58.409621
 21
94.620601
 31
0.0
  0
LINE
  5
107
330
F1
100
AcDbEntity
  8
0
  6
CONTINUOUS
 62
     3
100
AcDbLine
 10
58.409621
 20
94.620601
 30
0.0
 11
58.426167
 21
94.621009
 31
0.0
  0
LINE
  5
108
330
F1
100
AcDbEntity
  8
0
  6
CONTINUOUS
 62
     3
100
AcDbLine
 10
58.426167
 20
94.621009
 30
0.0
 11
58.442801
 21
94.621397
 31
0.0
  0
LINE
  5
109
330
F1
100
AcDbEntity
  8
0
  6
CONTINUOUS
 62
     3
100
AcDbLine
 10
58.442801
 20
94.621397
 30
0.0
 11
58.451084
 21
94.621581
 31
0.0
  0
LINE
  5
10A
330
F1
100
AcDbEntity
  8
0
  6
CONTINUOUS
 62
     3
100
AcDbLine
 10
58.451084
 20
94.621581
 30
0.0
 11
58.45931
 21
94.621756
 31
0.0
  0
LINE
  5
10B
330
F1
100
AcDbEntity
  8
0
  6
CONTINUOUS
 62
     3
100
AcDbLine
 10
58.45931
 20
94.621756
 30
0.0
 11
58.468883
 21
94.621949
 31
0.0
  0
LINE
  5
10C
330
F1
100
AcDbEntity
  8
0
  6
CONTINUOUS
 62
     3
100
AcDbLine
 10
58.468883
 20
94.621949
 30
0.0
 11
58.478349
 21
94.62213
 31
0.0
  0
LINE
  5
10D
330
F1
100
AcDbEntity
  8
0
  6
CONTINUOUS
 62
     3
100
AcDbLine
 10
58.478349
 20
94.62213
 30
0.0
 11
58.487716
 21
94.622298
 31
0.0
  0
LINE
  5
10E
330
F1
100
AcDbEntity
  8
0
  6
CONTINUOUS
 62
     3
100
AcDbLine
 10
58.487716
 20
94.622298
 30
0.0
 11
58.496995
 21
94.622453
 31
0.0
  0
LINE
  5
10F
330
F1
100
AcDbEntity
  8
0
  6
CONTINUOUS
 62
     3
100
AcDbLine
 10
58.496995
 20
94.622453
 30
0.0
 11
58.506194
 21
94.622597
 31
0.0
  0
LINE
  5
110
330
F1
100
AcDbEntity
  8
0
  6
CONTINUOUS
 62
     3
100
AcDbLine
 10
58.506194
 20
94.622597
 30
0.0
 11
58.515322
 21
94.62273
 31
0.0
  0
LINE
  5
111
330
F1
100
AcDbEntity
  8
0
  6
CONTINUOUS
 62
     3
100
AcDbLine
 10
58.515322
 20
94.62273
 30
0.0
 11
58.52439
 21
94.622851
 31
0.0
  0
LINE
  5
112
330
F1
100
AcDbEntity
  8
0
  6
CONTINUOUS
 62
     3
100
AcDbLine
 10
58.52439
 20
94.622851
 30
0.0
 11
58.533405
 21
94.622962
 31
0.0
  0
LINE
  5
113
330
F1
100
AcDbEntity
  8
0
  6
CONTINUOUS
 62
     3
100
AcDbLine
 10
58.533405
 20
94.622962
 30
0.0
 11
58.542377
 21
94.623062
 31
0.0
  0
LINE
  5
114
330
F1
100
AcDbEntity
  8
0
  6
CONTINUOUS
 62
     3
100
AcDbLine
 10
58.542377
 20
94.623062
 30
0.0
 11
58.551316
 21
94.623153
 31
0.0
  0
LINE
  5
115
330
F1
100
AcDbEntity
  8
0
  6
CONTINUOUS
 62
     3
100
AcDbLine
 10
58.551316
 20
94.623153
 30
0.0
 11
58.560231
 21
94.623234
 31
0.0
  0
LINE
  5
116
330
F1
100
AcDbEntity
  8
0
  6
CONTINUOUS
 62
     3
100
AcDbLine
 10
58.560231
 20
94.623234
 30
0.0
 11
58.56913
 21
94.623306
 31
0.0
  0
LINE
  5
117
330
F1
100
AcDbEntity
  8
0
  6
CONTINUOUS
 62
     3
100
AcDbLine
 10
58.56913
 20
94.623306
 30
0.0
 11
58.578024
 21
94.62337
 31
0.0
  0
LINE
  5
118
330
F1
100
AcDbEntity
  8
0
  6
CONTINUOUS
 62
     3
100
AcDbLine
 10
58.578024
 20
94.62337
 30
0.0
 11
58.58692
 21
94.623426
 31
0.0
  0
LINE
  5
119
330
F1
100
AcDbEntity
  8
0
  6
CONTINUOUS
 62
     3
100
AcDbLine
 10
58.58692
 20
94.623426
 30
0.0
 11
58.59583
 21
94.623473
 31
0.0
  0
LINE
  5
11A
330
F1
100
AcDbEntity
  8
0
  6
CONTINUOUS
 62
     3
100
AcDbLine
 10
58.59583
 20
94.623473
 30
0.0
 11
58.60476
 21
94.623514
 31
0.0
  0
LINE
  5
11B
330
F1
100
AcDbEntity
  8
0
  6
CONTINUOUS
 62
     3
100
AcDbLine
 10
58.60476
 20
94.623514
 30
0.0
 11
58.614045
 21
94.623549
 31
0.0
  0
LINE
  5
11C
330
F1
100
AcDbEntity
  8
0
  6
CONTINUOUS
 62
     3
100
AcDbLine
 10
58.614045
 20
94.623549
 30
0.0
 11
58.62336
 21
94.623576
 31
0.0
  0
LINE
  5
11D
330
F1
100
AcDbEntity
  8
0
  6
CONTINUOUS
 62
     3
100
AcDbLine
 10
58.62336
 20
94.623576
 30
0.0
 11
58.632703
 21
94.623595
 31
0.0
  0
LINE
  5
11E
330
F1
100
AcDbEntity
  8
0
  6
CONTINUOUS
 62
     3
100
AcDbLine
 10
58.632703
 20
94.623595
 30
0.0
 11
58.642071
 21
94.623606
 31
0.0
  0
LINE
  5
11F
330
F1
100
AcDbEntity
  8
0
  6
CONTINUOUS
 62
     3
100
AcDbLine
 10
58.642071
 20
94.623606
 30
0.0
 11
58.651462
 21
94.62361
 31
0.0
  0
LINE
  5
120
330
F1
100
AcDbEntity
  8
0
  6
CONTINUOUS
 62
     3
100
AcDbLine
 10
58.651462
 20
94.62361
 30
0.0
 11
58.660872
 21
94.623606
 31
0.0
  0
LINE
  5
121
330
F1
100
AcDbEntity
  8
0
  6
CONTINUOUS
 62
     3
100
AcDbLine
 10
58.660872
 20
94.623606
 30
0.0
 11
58.6703
 21
94.623593
 31
0.0
  0
LINE
  5
122
330
F1
100
AcDbEntity
  8
0
  6
CONTINUOUS
 62
     3
100
AcDbLine
 10
58.6703
 20
94.623593
 30
0.0
 11
58.679742
 21
94.623573
 31
0.0
  0
LINE
  5
123
330
F1
100
AcDbEntity
  8
0
  6
CONTINUOUS
 62
     3
100
AcDbLine
 10
58.679742
 20
94.623573
 30
0.0
 11
58.689197
 21
94.623543
 31
0.0
  0
LINE
  5
124
330
F1
100
AcDbEntity
  8
0
  6
CONTINUOUS
 62
     3
100
AcDbLine
 10
58.689197
 20
94.623543
 30
0.0
 11
58.69866
 21
94.623506
 31
0.0
  0
LINE
  5
125
330
F1
100
AcDbEntity
  8
0
  6
CONTINUOUS
 62
     3
100
AcDbLine
 10
58.69866
 20
94.623506
 30
0.0
 11
58.70813
 21
94.62346
 31
0.0
  0
LINE
  5
126
330
F1
100
AcDbEntity
  8
0
  6
CONTINUOUS
 62
     3
100
AcDbLine
 10
58.70813
 20
94.62346
 30
0.0
 11
58.717604
 21
94.623405
 31
0.0
  0
LINE
  5
127
330
F1
100
AcDbEntity
  8
0
  6
CONTINUOUS
 62
     3
100
AcDbLine
 10
58.717604
 20
94.623405
 30
0.0
 11
58.727079
 21
94.623341
 31
0.0
  0
LINE
  5
128
330
F1
100
AcDbEntity
  8
0
  6
CONTINUOUS
 62
     3
100
AcDbLine
 10
58.727079
 20
94.623341
 30
0.0
 11
58.736553
 21
94.623268
 31
0.0
  0
LINE
  5
129
330
F1
100
AcDbEntity
  8
0
  6
CONTINUOUS
 62
     3
100
AcDbLine
 10
58.736553
 20
94.623268
 30
0.0
 11
58.746023
 21
94.623187
 31
0.0
  0
LINE
  5
12A
330
F1
100
AcDbEntity
  8
0
  6
CONTINUOUS
 62
     3
100
AcDbLine
 10
58.746023
 20
94.623187
 30
0.0
 11
58.755486
 21
94.623096
 31
0.0
  0
LINE
  5
12B
330
F1
100
AcDbEntity
  8
0
  6
CONTINUOUS
 62
     3
100
AcDbLine
 10
58.755486
 20
94.623096
 30
0.0
 11
58.764209
 21
94.623004
 31
0.0
  0
LINE
  5
12C
330
F1
100
AcDbEntity
  8
0
  6
CONTINUOUS
 62
     3
100
AcDbLine
 10
58.764209
 20
94.623004
 30
0.0
 11
58.772924
 21
94.622904
 31
0.0
  0
LINE
  5
12D
330
F1
100
AcDbEntity
  8
0
  6
CONTINUOUS
 62
     3
100
AcDbLine
 10
58.772924
 20
94.622904
 30
0.0
 11
58.781633
 21
94.622796
 31
0.0
  0
LINE
  5
12E
330
F1
100
AcDbEntity
  8
0
  6
CONTINUOUS
 62
     3
100
AcDbLine
 10
58.781633
 20
94.622796
 30
0.0
 11
58.790336
 21
94.62268
 31
0.0
  0
LINE
  5
12F
330
F1
100
AcDbEntity
  8
0
  6
CONTINUOUS
 62
     3
100
AcDbLine
 10
58.790336
 20
94.62268
 30
0.0
 11
58.799034
 21
94.622557
 31
0.0
  0
LINE
  5
130
330
F1
100
AcDbEntity
  8
0
  6
CONTINUOUS
 62
     3
100
AcDbLine
 10
58.799034
 20
94.622557
 30
0.0
 11
58.807726
 21
94.622425
 31
0.0
  0
LINE
  5
131
330
F1
100
AcDbEntity
  8
0
  6
CONTINUOUS
 62
     3
100
AcDbLine
 10
58.807726
 20
94.622425
 30
0.0
 11
58.816415
 21
94.622286
 31
0.0
  0
LINE
  5
132
330
F1
100
AcDbEntity
  8
0
  6
CONTINUOUS
 62
     3
100
AcDbLine
 10
58.816415
 20
94.622286
 30
0.0
 11
58.8251
 21
94.62214
 31
0.0
  0
LINE
  5
133
330
F1
100
AcDbEntity
  8
0
  6
CONTINUOUS
 62
     3
100
AcDbLine
 10
58.8251
 20
94.62214
 30
0.0
 11
58.833782
 21
94.621985
 31
0.0
  0
LINE
  5
134
330
F1
100
AcDbEntity
  8
0
  6
CONTINUOUS
 62
     3
100
AcDbLine
 10
58.833782
 20
94.621985
 30
0.0
 11
58.842462
 21
94.621823
 31
0.0
  0
LINE
  5
135
330
F1
100
AcDbEntity
  8
0
  6
CONTINUOUS
 62
     3
100
AcDbLine
 10
58.842462
 20
94.621823
 30
0.0
 11
58.85114
 21
94.621653
 31
0.0
  0
LINE
  5
136
330
F1
100
AcDbEntity
  8
0
  6
CONTINUOUS
 62
     3
100
AcDbLine
 10
58.85114
 20
94.621653
 30
0.0
 11
58.859817
 21
94.621475
 31
0.0
  0
LINE
  5
137
330
F1
100
AcDbEntity
  8
0
  6
CONTINUOUS
 62
     3
100
AcDbLine
 10
58.859817
 20
94.621475
 30
0.0
 11
58.868494
 21
94.62129
 31
0.0
  0
LINE
  5
138
330
F1
100
AcDbEntity
  8
0
  6
CONTINUOUS
 62
     3
100
AcDbLine
 10
58.868494
 20
94.62129
 30
0.0
 11
58.877171
 21
94.621097
 31
0.0
  0
LINE
  5
139
330
F1
100
AcDbEntity
  8
0
  6
CONTINUOUS
 62
     3
100
AcDbLine
 10
58.877171
 20
94.621097
 30
0.0
 11
58.885849
 21
94.620897
 31
0.0
  0
LINE
  5
13A
330
F1
100
AcDbEntity
  8
0
  6
CONTINUOUS
 62
     3
100
AcDbLine
 10
58.885849
 20
94.620897
 30
0.0
 11
58.894528
 21
94.620689
 31
0.0
  0
LINE
  5
13B
330
F1
100
AcDbEntity
  8
0
  6
CONTINUOUS
 62
     3
100
AcDbLine
 10
58.894528
 20
94.620689
 30
0.0
 11
58.908504
 21
94.620339
 31
0.0
  0
LINE
  5
13C
330
F1
100
AcDbEntity
  8
0
  6
CONTINUOUS
 62
     3
100
AcDbLine
 10
58.908504
 20
94.620339
 30
0.0
 11
58.922485
 21
94.619969
 31
0.0
  0
LINE
  5
13D
330
F1
100
AcDbEntity
  8
0
  6
CONTINUOUS
 62
     3
100
AcDbLine
 10
58.922485
 20
94.619969
 30
0.0
 11
58.936469
 21
94.61958
 31
0.0
  0
LINE
  5
13E
330
F1
100
AcDbEntity
  8
0
  6
CONTINUOUS
 62
     3
100
AcDbLine
 10
58.936469
 20
94.61958
 30
0.0
 11
58.950456
 21
94.619171
 31
0.0
  0
LINE
  5
13F
330
F1
100
AcDbEntity
  8
0
  6
CONTINUOUS
 62
     3
100
AcDbLine
 10
58.950456
 20
94.619171
 30
0.0
 11
58.964444
 21
94.618743
 31
0.0
  0
LINE
  5
140
330
F1
100
AcDbEntity
  8
0
  6
CONTINUOUS
 62
     3
100
AcDbLine
 10
58.964444
 20
94.618743
 30
0.0
 11
58.978432
 21
94.618296
 31
0.0
  0
LINE
  5
141
330
F1
100
AcDbEntity
  8
0
  6
CONTINUOUS
 62
     3
100
AcDbLine
 10
58.978432
 20
94.618296
 30
0.0
 11
58.99242
 21
94.61783
 31
0.0
  0
LINE
  5
142
330
F1
100
AcDbEntity
  8
0
  6
CONTINUOUS
 62
     3
100
AcDbLine
 10
58.99242
 20
94.61783
 30
0.0
 11
59.006406
 21
94.617345
 31
0.0
  0
LINE
  5
143
330
F1
100
AcDbEntity
  8
0
  6
CONTINUOUS
 62
     3
100
AcDbLine
 10
59.006406
 20
94.617345
 30
0.0
 11
59.015417
 21
94.617022
 31
0.0
  0
LINE
  5
144
330
F1
100
AcDbEntity
  8
0
  6
CONTINUOUS
 62
     3
100
AcDbLine
 10
59.015417
 20
94.617022
 30
0.0
 11
59.024426
 21
94.616691
 31
0.0
  0
LINE
  5
145
330
F1
100
AcDbEntity
  8
0
  6
CONTINUOUS
 62
     3
100
AcDbLine
 10
59.024426
 20
94.616691
 30
0.0
 11
59.033434
 21
94.616352
 31
0.0
  0
LINE
  5
146
330
F1
100
AcDbEntity
  8
0
  6
CONTINUOUS
 62
     3
100
AcDbLine
 10
59.033434
 20
94.616352
 30
0.0
 11
59.042442
 21
94.616005
 31
0.0
  0
LINE
  5
147
330
F1
100
AcDbEntity
  8
0
  6
CONTINUOUS
 62
     3
100
AcDbLine
 10
59.042442
 20
94.616005
 30
0.0
 11
59.051449
 21
94.615649
 31
0.0
  0
LINE
  5
148
330
F1
100
AcDbEntity
  8
0
  6
CONTINUOUS
 62
     3
100
AcDbLine
 10
59.051449
 20
94.615649
 30
0.0
 11
59.060456
 21
94.615284
 31
0.0
  0
LINE
  5
149
330
F1
100
AcDbEntity
  8
0
  6
CONTINUOUS
 62
     3
100
AcDbLine
 10
59.060456
 20
94.615284
 30
0.0
 11
59.069462
 21
94.61491
 31
0.0
  0
LINE
  5
14A
330
F1
100
AcDbEntity
  8
0
  6
CONTINUOUS
 62
     3
100
AcDbLine
 10
59.069462
 20
94.61491
 30
0.0
 11
59.078468
 21
94.614528
 31
0.0
  0
LINE
  5
14B
330
F1
100
AcDbEntity
  8
0
  6
CONTINUOUS
 62
     3
100
AcDbLine
 10
59.078468
 20
94.614528
 30
0.0
 11
59.090136
 21
94.614019
 31
0.0
  0
LINE
  5
14C
330
F1
100
AcDbEntity
  8
0
  6
CONTINUOUS
 62
     3
100
AcDbLine
 10
59.090136
 20
94.614019
 30
0.0
 11
59.101804
 21
94.613503
 31
0.0
  0
ENDBLK
  5
F3
330
F1
100
AcDbEntity
  8
0
100
AcDbBlockEnd
  0
BLOCK
  5
168
330
167
100
AcDbEntity
  8
0
100
AcDbBlockBegin
  2
BLKF014
 70
     0
 71
     0
 10
0.0
 20
0.0
 30
0.0
  3
BLKF014
  1

  0
LINE
  5
16B
330
167
100
AcDbEntity
  8
0
  6
CONTINUOUS
 62
     3
100
AcDbLine
 10
160.762801
 20
102.401313
 30
0.0
 11
160.762501
 21
102.361428
 31
0.0
  0
LINE
  5
16C
330
167
100
AcDbEntity
  8
0
  6
CONTINUOUS
 62
     3
100
AcDbLine
 10
160.762501
 20
102.361428
 30
0.0
 11
160.761878
 21
102.32157
 31
0.0
  0
LINE
  5
16D
330
167
100
AcDbEntity
  8
0
  6
CONTINUOUS
 62
     3
100
AcDbLine
 10
160.761878
 20
102.32157
 30
0.0
 11
160.760601
 21
102.280139
 31
0.0
  0
LINE
  5
16E
330
167
100
AcDbEntity
  8
0
  6
CONTINUOUS
 62
     3
100
AcDbLine
 10
160.760601
 20
102.280139
 30
0.0
 11
160.758646
 21
102.238768
 31
0.0
  0
LINE
  5
16F
330
167
100
AcDbEntity
  8
0
  6
CONTINUOUS
 62
     3
100
AcDbLine
 10
160.758646
 20
102.238768
 30
0.0
 11
160.756032
 21
102.197452
 31
0.0
  0
LINE
  5
170
330
167
100
AcDbEntity
  8
0
  6
CONTINUOUS
 62
     3
100
AcDbLine
 10
160.756032
 20
102.197452
 30
0.0
 11
160.752784
 21
102.156192
 31
0.0
  0
LINE
  5
171
330
167
100
AcDbEntity
  8
0
  6
CONTINUOUS
 62
     3
100
AcDbLine
 10
160.752784
 20
102.156192
 30
0.0
 11
160.748922
 21
102.114984
 31
0.0
  0
LINE
  5
172
330
167
100
AcDbEntity
  8
0
  6
CONTINUOUS
 62
     3
100
AcDbLine
 10
160.748922
 20
102.114984
 30
0.0
 11
160.744468
 21
102.073828
 31
0.0
  0
LINE
  5
173
330
167
100
AcDbEntity
  8
0
  6
CONTINUOUS
 62
     3
100
AcDbLine
 10
160.744468
 20
102.073828
 30
0.0
 11
160.739445
 21
102.03272
 31
0.0
  0
LINE
  5
174
330
167
100
AcDbEntity
  8
0
  6
CONTINUOUS
 62
     3
100
AcDbLine
 10
160.739445
 20
102.03272
 30
0.0
 11
160.733874
 21
101.99166
 31
0.0
  0
LINE
  5
175
330
167
100
AcDbEntity
  8
0
  6
CONTINUOUS
 62
     3
100
AcDbLine
 10
160.733874
 20
101.99166
 30
0.0
 11
160.727777
 21
101.950645
 31
0.0
  0
LINE
  5
176
330
167
100
AcDbEntity
  8
0
  6
CONTINUOUS
 62
     3
100
AcDbLine
 10
160.727777
 20
101.950645
 30
0.0
 11
160.721176
 21
101.909674
 31
0.0
  0
LINE
  5
177
330
167
100
AcDbEntity
  8
0
  6
CONTINUOUS
 62
     3
100
AcDbLine
 10
160.721176
 20
101.909674
 30
0.0
 11
160.714093
 21
101.868744
 31
0.0
  0
LINE
  5
178
330
167
100
AcDbEntity
  8
0
  6
CONTINUOUS
 62
     3
100
AcDbLine
 10
160.714093
 20
101.868744
 30
0.0
 11
160.706549
 21
101.827854
 31
0.0
  0
LINE
  5
179
330
167
100
AcDbEntity
  8
0
  6
CONTINUOUS
 62
     3
100
AcDbLine
 10
160.706549
 20
101.827854
 30
0.0
 11
160.698568
 21
101.787001
 31
0.0
  0
LINE
  5
17A
330
167
100
AcDbEntity
  8
0
  6
CONTINUOUS
 62
     3
100
AcDbLine
 10
160.698568
 20
101.787001
 30
0.0
 11
160.69017
 21
101.746185
 31
0.0
  0
LINE
  5
17B
330
167
100
AcDbEntity
  8
0
  6
CONTINUOUS
 62
     3
100
AcDbLine
 10
160.69017
 20
101.746185
 30
0.0
 11
160.681378
 21
101.705402
 31
0.0
  0
LINE
  5
17C
330
167
100
AcDbEntity
  8
0
  6
CONTINUOUS
 62
     3
100
AcDbLine
 10
160.681378
 20
101.705402
 30
0.0
 11
160.672214
 21
101.664652
 31
0.0
  0
LINE
  5
17D
330
167
100
AcDbEntity
  8
0
  6
CONTINUOUS
 62
     3
100
AcDbLine
 10
160.672214
 20
101.664652
 30
0.0
 11
160.662698
 21
101.623932
 31
0.0
  0
LINE
  5
17E
330
167
100
AcDbEntity
  8
0
  6
CONTINUOUS
 62
     3
100
AcDbLine
 10
160.662698
 20
101.623932
 30
0.0
 11
160.652855
 21
101.58324
 31
0.0
  0
LINE
  5
17F
330
167
100
AcDbEntity
  8
0
  6
CONTINUOUS
 62
     3
100
AcDbLine
 10
160.652855
 20
101.58324
 30
0.0
 11
160.642704
 21
101.542574
 31
0.0
  0
LINE
  5
180
330
167
100
AcDbEntity
  8
0
  6
CONTINUOUS
 62
     3
100
AcDbLine
 10
160.642704
 20
101.542574
 30
0.0
 11
160.632268
 21
101.501933
 31
0.0
  0
LINE
  5
181
330
167
100
AcDbEntity
  8
0
  6
CONTINUOUS
 62
     3
100
AcDbLine
 10
160.632268
 20
101.501933
 30
0.0
 11
160.62157
 21
101.461315
 31
0.0
  0
LINE
  5
182
330
167
100
AcDbEntity
  8
0
  6
CONTINUOUS
 62
     3
100
AcDbLine
 10
160.62157
 20
101.461315
 30
0.0
 11
160.610631
 21
101.420718
 31
0.0
  0
LINE
  5
183
330
167
100
AcDbEntity
  8
0
  6
CONTINUOUS
 62
     3
100
AcDbLine
 10
160.610631
 20
101.420718
 30
0.0
 11
160.599472
 21
101.380139
 31
0.0
  0
LINE
  5
184
330
167
100
AcDbEntity
  8
0
  6
CONTINUOUS
 62
     3
100
AcDbLine
 10
160.599472
 20
101.380139
 30
0.0
 11
160.588116
 21
101.339578
 31
0.0
  0
LINE
  5
185
330
167
100
AcDbEntity
  8
0
  6
CONTINUOUS
 62
     3
100
AcDbLine
 10
160.588116
 20
101.339578
 30
0.0
 11
160.576585
 21
101.299031
 31
0.0
  0
LINE
  5
186
330
167
100
AcDbEntity
  8
0
  6
CONTINUOUS
 62
     3
100
AcDbLine
 10
160.576585
 20
101.299031
 30
0.0
 11
160.564901
 21
101.258498
 31
0.0
  0
LINE
  5
187
330
167
100
AcDbEntity
  8
0
  6
CONTINUOUS
 62
     3
100
AcDbLine
 10
160.564901
 20
101.258498
 30
0.0
 11
160.553085
 21
101.217976
 31
0.0
  0
LINE
  5
188
330
167
100
AcDbEntity
  8
0
  6
CONTINUOUS
 62
     3
100
AcDbLine
 10
160.553085
 20
101.217976
 30
0.0
 11
160.54116
 21
101.177464
 31
0.0
  0
LINE
  5
189
330
167
100
AcDbEntity
  8
0
  6
CONTINUOUS
 62
     3
100
AcDbLine
 10
160.54116
 20
101.177464
 30
0.0
 11
160.517068
 21
101.09646
 31
0.0
  0
LINE
  5
18A
330
167
100
AcDbEntity
  8
0
  6
CONTINUOUS
 62
     3
100
AcDbLine
 10
160.517068
 20
101.09646
 30
0.0
 11
160.492801
 21
101.015471
 31
0.0
  0
ENDBLK
  5
169
330
167
100
AcDbEntity
  8
0
100
AcDbBlockEnd
  0
BLOCK
  5
18D
330
18C
100
AcDbEntity
  8
0
100
AcDbBlockBegin
  2
BLKF015
 70
     0
 71
     0
 10
0.0
 20
0.0
 30
0.0
  3
BLKF015
  1

  0
LINE
  5
190
330
18C
100
AcDbEntity
  8
0
  6
CONTINUOUS
 62
     3
100
AcDbLine
 10
157.630801
 20
101.015471
 30
0.0
 11
157.60249
 21
101.092683
 31
0.0
  0
LINE
  5
191
330
18C
100
AcDbEntity
  8
0
  6
CONTINUOUS
 62
     3
100
AcDbLine
 10
157.60249
 20
101.092683
 30
0.0
 11
157.58866
 21
101.131377
 31
0.0
  0
LINE
  5
192
330
18C
100
AcDbEntity
  8
0
  6
CONTINUOUS
 62
     3
100
AcDbLine
 10
157.58866
 20
101.131377
 30
0.0
 11
157.575221
 21
101.170178
 31
0.0
  0
LINE
  5
193
330
18C
100
AcDbEntity
  8
0
  6
CONTINUOUS
 62
     3
100
AcDbLine
 10
157.575221
 20
101.170178
 30
0.0
 11
157.561612
 21
101.211089
 31
0.0
  0
LINE
  5
194
330
18C
100
AcDbEntity
  8
0
  6
CONTINUOUS
 62
     3
100
AcDbLine
 10
157.561612
 20
101.211089
 30
0.0
 11
157.548436
 21
101.252118
 31
0.0
  0
LINE
  5
195
330
18C
100
AcDbEntity
  8
0
  6
CONTINUOUS
 62
     3
100
AcDbLine
 10
157.548436
 20
101.252118
 30
0.0
 11
157.522801
 21
101.33437
 31
0.0
  0
ENDBLK
  5
18E
330
18C
100
AcDbEntity
  8
0
100
AcDbBlockEnd
  0
BLOCK
  5
1A2
330
1A1
100
AcDbEntity
  8
0
100
AcDbBlockBegin
  2
BLKF016
 70
     0
 71
     0
 10
0.0
 20
0.0
 30
0.0
  3
BLKF016
  1

  0
LINE
  5
1A5
330
1A1
100
AcDbEntity
  8
0
  6
CONTINUOUS
 62
     3
100
AcDbLine
 10
160.762801
 20
98.088546
 30
0.0
 11
160.762501
 21
98.051243
 31
0.0
  0
LINE
  5
1A6
330
1A1
100
AcDbEntity
  8
0
  6
CONTINUOUS
 62
     3
100
AcDbLine
 10
160.762501
 20
98.051243
 30
0.0
 11
160.761878
 21
98.013965
 31
0.0
  0
LINE
  5
1A7
330
1A1
100
AcDbEntity
  8
0
  6
CONTINUOUS
 62
     3
100
AcDbLine
 10
160.761878
 20
98.013965
 30
0.0
 11
160.760601
 21
97.975217
 31
0.0
  0
LINE
  5
1A8
330
1A1
100
AcDbEntity
  8
0
  6
CONTINUOUS
 62
     3
100
AcDbLine
 10
160.760601
 20
97.975217
 30
0.0
 11
160.758646
 21
97.936523
 31
0.0
  0
LINE
  5
1A9
330
1A1
100
AcDbEntity
  8
0
  6
CONTINUOUS
 62
     3
100
AcDbLine
 10
160.758646
 20
97.936523
 30
0.0
 11
160.756032
 21
97.897883
 31
0.0
  0
LINE
  5
1AA
330
1A1
100
AcDbEntity
  8
0
  6
CONTINUOUS
 62
     3
100
AcDbLine
 10
160.756032
 20
97.897883
 30
0.0
 11
160.752784
 21
97.859293
 31
0.0
  0
LINE
  5
1AB
330
1A1
100
AcDbEntity
  8
0
  6
CONTINUOUS
 62
     3
100
AcDbLine
 10
160.752784
 20
97.859293
 30
0.0
 11
160.748922
 21
97.820754
 31
0.0
  0
LINE
  5
1AC
330
1A1
100
AcDbEntity
  8
0
  6
CONTINUOUS
 62
     3
100
AcDbLine
 10
160.748922
 20
97.820754
 30
0.0
 11
160.744468
 21
97.782261
 31
0.0
  0
LINE
  5
1AD
330
1A1
100
AcDbEntity
  8
0
  6
CONTINUOUS
 62
     3
100
AcDbLine
 10
160.744468
 20
97.782261
 30
0.0
 11
160.739445
 21
97.743815
 31
0.0
  0
LINE
  5
1AE
330
1A1
100
AcDbEntity
  8
0
  6
CONTINUOUS
 62
     3
100
AcDbLine
 10
160.739445
 20
97.743815
 30
0.0
 11
160.733874
 21
97.705413
 31
0.0
  0
LINE
  5
1AF
330
1A1
100
AcDbEntity
  8
0
  6
CONTINUOUS
 62
     3
100
AcDbLine
 10
160.733874
 20
97.705413
 30
0.0
 11
160.727777
 21
97.667053
 31
0.0
  0
LINE
  5
1B0
330
1A1
100
AcDbEntity
  8
0
  6
CONTINUOUS
 62
     3
100
AcDbLine
 10
160.727777
 20
97.667053
 30
0.0
 11
160.721176
 21
97.628734
 31
0.0
  0
LINE
  5
1B1
330
1A1
100
AcDbEntity
  8
0
  6
CONTINUOUS
 62
     3
100
AcDbLine
 10
160.721176
 20
97.628734
 30
0.0
 11
160.714093
 21
97.590454
 31
0.0
  0
LINE
  5
1B2
330
1A1
100
AcDbEntity
  8
0
  6
CONTINUOUS
 62
     3
100
AcDbLine
 10
160.714093
 20
97.590454
 30
0.0
 11
160.706549
 21
97.552211
 31
0.0
  0
LINE
  5
1B3
330
1A1
100
AcDbEntity
  8
0
  6
CONTINUOUS
 62
     3
100
AcDbLine
 10
160.706549
 20
97.552211
 30
0.0
 11
160.698568
 21
97.514003
 31
0.0
  0
LINE
  5
1B4
330
1A1
100
AcDbEntity
  8
0
  6
CONTINUOUS
 62
     3
100
AcDbLine
 10
160.698568
 20
97.514003
 30
0.0
 11
160.69017
 21
97.475829
 31
0.0
  0
LINE
  5
1B5
330
1A1
100
AcDbEntity
  8
0
  6
CONTINUOUS
 62
     3
100
AcDbLine
 10
160.69017
 20
97.475829
 30
0.0
 11
160.681378
 21
97.437687
 31
0.0
  0
LINE
  5
1B6
330
1A1
100
AcDbEntity
  8
0
  6
CONTINUOUS
 62
     3
100
AcDbLine
 10
160.681378
 20
97.437687
 30
0.0
 11
160.672214
 21
97.399575
 31
0.0
  0
LINE
  5
1B7
330
1A1
100
AcDbEntity
  8
0
  6
CONTINUOUS
 62
     3
100
AcDbLine
 10
160.672214
 20
97.399575
 30
0.0
 11
160.662698
 21
97.36149
 31
0.0
  0
LINE
  5
1B8
330
1A1
100
AcDbEntity
  8
0
  6
CONTINUOUS
 62
     3
100
AcDbLine
 10
160.662698
 20
97.36149
 30
0.0
 11
160.652855
 21
97.323433
 31
0.0
  0
LINE
  5
1B9
330
1A1
100
AcDbEntity
  8
0
  6
CONTINUOUS
 62
     3
100
AcDbLine
 10
160.652855
 20
97.323433
 30
0.0
 11
160.642704
 21
97.2854
 31
0.0
  0
LINE
  5
1BA
330
1A1
100
AcDbEntity
  8
0
  6
CONTINUOUS
 62
     3
100
AcDbLine
 10
160.642704
 20
97.2854
 30
0.0
 11
160.632268
 21
97.24739
 31
0.0
  0
LINE
  5
1BB
330
1A1
100
AcDbEntity
  8
0
  6
CONTINUOUS
 62
     3
100
AcDbLine
 10
160.632268
 20
97.24739
 30
0.0
 11
160.62157
 21
97.209401
 31
0.0
  0
LINE
  5
1BC
330
1A1
100
AcDbEntity
  8
0
  6
CONTINUOUS
 62
     3
100
AcDbLine
 10
160.62157
 20
97.209401
 30
0.0
 11
160.610631
 21
97.171432
 31
0.0
  0
LINE
  5
1BD
330
1A1
100
AcDbEntity
  8
0
  6
CONTINUOUS
 62
     3
100
AcDbLine
 10
160.610631
 20
97.171432
 30
0.0
 11
160.599472
 21
97.133481
 31
0.0
  0
LINE
  5
1BE
330
1A1
100
AcDbEntity
  8
0
  6
CONTINUOUS
 62
     3
100
AcDbLine
 10
160.599472
 20
97.133481
 30
0.0
 11
160.588116
 21
97.095545
 31
0.0
  0
LINE
  5
1BF
330
1A1
100
AcDbEntity
  8
0
  6
CONTINUOUS
 62
     3
100
AcDbLine
 10
160.588116
 20
97.095545
 30
0.0
 11
160.576585
 21
97.057623
 31
0.0
  0
LINE
  5
1C0
330
1A1
100
AcDbEntity
  8
0
  6
CONTINUOUS
 62
     3
100
AcDbLine
 10
160.576585
 20
97.057623
 30
0.0
 11
160.564901
 21
97.019714
 31
0.0
  0
LINE
  5
1C1
330
1A1
100
AcDbEntity
  8
0
  6
CONTINUOUS
 62
     3
100
AcDbLine
 10
160.564901
 20
97.019714
 30
0.0
 11
160.553085
 21
96.981816
 31
0.0
  0
LINE
  5
1C2
330
1A1
100
AcDbEntity
  8
0
  6
CONTINUOUS
 62
     3
100
AcDbLine
 10
160.553085
 20
96.981816
 30
0.0
 11
160.54116
 21
96.943926
 31
0.0
  0
LINE
  5
1C3
330
1A1
100
AcDbEntity
  8
0
  6
CONTINUOUS
 62
     3
100
AcDbLine
 10
160.54116
 20
96.943926
 30
0.0
 11
160.517068
 21
96.868166
 31
0.0
  0
LINE
  5
1C4
330
1A1
100
AcDbEntity
  8
0
  6
CONTINUOUS
 62
     3
100
AcDbLine
 10
160.517068
 20
96.868166
 30
0.0
 11
160.492801
 21
96.79242
 31
0.0
  0
ENDBLK
  5
1A3
330
1A1
100
AcDbEntity
  8
0
100
AcDbBlockEnd
  0
BLOCK
  5
1C7
330
1C6
100
AcDbEntity
  8
0
100
AcDbBlockBegin
  2
BLKF017
 70
     0
 71
     0
 10
0.0
 20
0.0
 30
0.0
  3
BLKF017
  1

  0
LINE
  5
1CA
330
1C6
100
AcDbEntity
  8
0
  6
CONTINUOUS
 62
     3
100
AcDbLine
 10
157.630801
 20
96.79242
 30
0.0
 11
157.60249
 21
96.864634
 31
0.0
  0
LINE
  5
1CB
330
1C6
100
AcDbEntity
  8
0
  6
CONTINUOUS
 62
     3
100
AcDbLine
 10
157.60249
 20
96.864634
 30
0.0
 11
157.58866
 21
96.900823
 31
0.0
  0
LINE
  5
1CC
330
1C6
100
AcDbEntity
  8
0
  6
CONTINUOUS
 62
     3
100
AcDbLine
 10
157.58866
 20
96.900823
 30
0.0
 11
157.575221
 21
96.937111
 31
0.0
  0
LINE
  5
1CD
330
1C6
100
AcDbEntity
  8
0
  6
CONTINUOUS
 62
     3
100
AcDbLine
 10
157.575221
 20
96.937111
 30
0.0
 11
157.561612
 21
96.975375
 31
0.0
  0
LINE
  5
1CE
330
1C6
100
AcDbEntity
  8
0
  6
CONTINUOUS
 62
     3
100
AcDbLine
 10
157.561612
 20
96.975375
 30
0.0
 11
157.548436
 21
97.013747
 31
0.0
  0
LINE
  5
1CF
330
1C6
100
AcDbEntity
  8
0
  6
CONTINUOUS
 62
     3
100
AcDbLine
 10
157.548436
 20
97.013747
 30
0.0
 11
157.522801
 21
97.090674
 31
0.0
  0
ENDBLK
  5
1C8
330
1C6
100
AcDbEntity
  8
0
100
AcDbBlockEnd
  0
BLOCK
  5
1D4
330
1D3
100
AcDbEntity
  8
0
100
AcDbBlockBegin
  2
BLKF018
 70
     0
 71
     0
 10
0.0
 20
0.0
 30
0.0
  3
BLKF018
  1

  0
LINE
  5
1D7
330
1D3
100
AcDbEntity
  8
0
  6
CONTINUOUS
 62
     3
100
AcDbLine
 10
160.762801
 20
104.7741
 30
0.0
 11
160.752012
 21
104.76562
 31
0.0
  0
LINE
  5
1D8
330
1D3
100
AcDbEntity
  8
0
  6
CONTINUOUS
 62
     3
100
AcDbLine
 10
160.752012
 20
104.76562
 30
0.0
 11
160.740433
 21
104.757149
 31
0.0
  0
LINE
  5
1D9
330
1D3
100
AcDbEntity
  8
0
  6
CONTINUOUS
 62
     3
100
AcDbLine
 10
160.740433
 20
104.757149
 30
0.0
 11
160.727273
 21
104.748698
 31
0.0
  0
LINE
  5
1DA
330
1D3
100
AcDbEntity
  8
0
  6
CONTINUOUS
 62
     3
100
AcDbLine
 10
160.727273
 20
104.748698
 30
0.0
 11
160.711743
 21
104.740276
 31
0.0
  0
LINE
  5
1DB
330
1D3
100
AcDbEntity
  8
0
  6
CONTINUOUS
 62
     3
100
AcDbLine
 10
160.711743
 20
104.740276
 30
0.0
 11
160.693052
 21
104.731894
 31
0.0
  0
LINE
  5
1DC
330
1D3
100
AcDbEntity
  8
0
  6
CONTINUOUS
 62
     3
100
AcDbLine
 10
160.693052
 20
104.731894
 30
0.0
 11
160.67041
 21
104.72356
 31
0.0
  0
LINE
  5
1DD
330
1D3
100
AcDbEntity
  8
0
  6
CONTINUOUS
 62
     3
100
AcDbLine
 10
160.67041
 20
104.72356
 30
0.0
 11
160.643028
 21
104.715285
 31
0.0
  0
LINE
  5
1DE
330
1D3
100
AcDbEntity
  8
0
  6
CONTINUOUS
 62
     3
100
AcDbLine
 10
160.643028
 20
104.715285
 30
0.0
 11
160.627312
 21
104.711173
 31
0.0
  0
LINE
  5
1DF
330
1D3
100
AcDbEntity
  8
0
  6
CONTINUOUS
 62
     3
100
AcDbLine
 10
160.627312
 20
104.711173
 30
0.0
 11
160.610115
 21
104.707079
 31
0.0
  0
LINE
  5
1E0
330
1D3
100
AcDbEntity
  8
0
  6
CONTINUOUS
 62
     3
100
AcDbLine
 10
160.610115
 20
104.707079
 30
0.0
 11
160.583503
 21
104.701371
 31
0.0
  0
LINE
  5
1E1
330
1D3
100
AcDbEntity
  8
0
  6
CONTINUOUS
 62
     3
100
AcDbLine
 10
160.583503
 20
104.701371
 30
0.0
 11
160.554562
 21
104.695693
 31
0.0
  0
LINE
  5
1E2
330
1D3
100
AcDbEntity
  8
0
  6
CONTINUOUS
 62
     3
100
AcDbLine
 10
160.554562
 20
104.695693
 30
0.0
 11
160.492801
 21
104.684384
 31
0.0
  0
ENDBLK
  5
1D5
330
1D3
100
AcDbEntity
  8
0
100
AcDbBlockEnd
  0
BLOCK
  5
1E5
330
1E4
100
AcDbEntity
  8
0
100
AcDbBlockBegin
  2
BLKF019
 70
     0
 71
     0
 10
0.0
 20
0.0
 30
0.0
  3
BLKF019
  1

  0
LINE
  5
1E8
330
1E4
100
AcDbEntity
  8
0
  6
CONTINUOUS
 62
     3
100
AcDbLine
 10
160.492801
 20
96.05885
 30
0.0
 11
160.554562
 21
96.070159
 31
0.0
  0
LINE
  5
1E9
330
1E4
100
AcDbEntity
  8
0
  6
CONTINUOUS
 62
     3
100
AcDbLine
 10
160.554562
 20
96.070159
 30
0.0
 11
160.583503
 21
96.075838
 31
0.0
  0
LINE
  5
1EA
330
1E4
100
AcDbEntity
  8
0
  6
CONTINUOUS
 62
     3
100
AcDbLine
 10
160.583503
 20
96.075838
 30
0.0
 11
160.610115
 21
96.081545
 31
0.0
  0
LINE
  5
1EB
330
1E4
100
AcDbEntity
  8
0
  6
CONTINUOUS
 62
     3
100
AcDbLine
 10
160.610115
 20
96.081545
 30
0.0
 11
160.627312
 21
96.085639
 31
0.0
  0
LINE
  5
1EC
330
1E4
100
AcDbEntity
  8
0
  6
CONTINUOUS
 62
     3
100
AcDbLine
 10
160.627312
 20
96.085639
 30
0.0
 11
160.643028
 21
96.089752
 31
0.0
  0
LINE
  5
1ED
330
1E4
100
AcDbEntity
  8
0
  6
CONTINUOUS
 62
     3
100
AcDbLine
 10
160.643028
 20
96.089752
 30
0.0
 11
160.67041
 21
96.098027
 31
0.0
  0
LINE
  5
1EE
330
1E4
100
AcDbEntity
  8
0
  6
CONTINUOUS
 62
     3
100
AcDbLine
 10
160.67041
 20
96.098027
 30
0.0
 11
160.693052
 21
96.10636
 31
0.0
  0
LINE
  5
1EF
330
1E4
100
AcDbEntity
  8
0
  6
CONTINUOUS
 62
     3
100
AcDbLine
 10
160.693052
 20
96.10636
 30
0.0
 11
160.711743
 21
96.114743
 31
0.0
  0
LINE
  5
1F0
330
1E4
100
AcDbEntity
  8
0
  6
CONTINUOUS
 62
     3
100
AcDbLine
 10
160.711743
 20
96.114743
 30
0.0
 11
160.727273
 21
96.123164
 31
0.0
  0
LINE
  5
1F1
330
1E4
100
AcDbEntity
  8
0
  6
CONTINUOUS
 62
     3
100
AcDbLine
 10
160.727273
 20
96.123164
 30
0.0
 11
160.740433
 21
96.131615
 31
0.0
  0
LINE
  5
1F2
330
1E4
100
AcDbEntity
  8
0
  6
CONTINUOUS
 62
     3
100
AcDbLine
 10
160.740433
 20
96.131615
 30
0.0
 11
160.752012
 21
96.140085
 31
0.0
  0
LINE
  5
1F3
330
1E4
100
AcDbEntity
  8
0
  6
CONTINUOUS
 62
     3
100
AcDbLine
 10
160.752012
 20
96.140085
 30
0.0
 11
160.762801
 21
96.148566
 31
0.0
  0
ENDBLK
  5
1E6
330
1E4
100
AcDbEntity
  8
0
100
AcDbBlockEnd
  0
BLOCK
  5
1F7
330
1F6
100
AcDbEntity
  8
0
100
AcDbBlockBegin
  2
BLKF020
 70
     0
 71
     0
 10
0.0
 20
0.0
 30
0.0
  3
BLKF020
  1

  0
LINE
  5
1FA
330
1F6
100
AcDbEntity
  8
0
  6
CONTINUOUS
 62
     3
100
AcDbLine
 10
157.630801
 20
104.684384
 30
0.0
 11
157.588562
 21
104.691968
 31
0.0
  0
LINE
  5
1FB
330
1F6
100
AcDbEntity
  8
0
  6
CONTINUOUS
 62
     3
100
AcDbLine
 10
157.588562
 20
104.691968
 30
0.0
 11
157.568199
 21
104.695773
 31
0.0
  0
LINE
  5
1FC
330
1F6
100
AcDbEntity
  8
0
  6
CONTINUOUS
 62
     3
100
AcDbLine
 10
157.568199
 20
104.695773
 30
0.0
 11
157.548745
 21
104.699593
 31
0.0
  0
LINE
  5
1FD
330
1F6
100
AcDbEntity
  8
0
  6
CONTINUOUS
 62
     3
100
AcDbLine
 10
157.548745
 20
104.699593
 30
0.0
 11
157.522801
 21
104.705029
 31
0.0
  0
ENDBLK
  5
1F8
330
1F6
100
AcDbEntity
  8
0
100
AcDbBlockEnd
  0
BLOCK
  5
206
330
205
100
AcDbEntity
  8
0
100
AcDbBlockBegin
  2
BLKF021
 70
     0
 71
     0
 10
0.0
 20
0.0
 30
0.0
  3
BLKF021
  1

  0
LINE
  5
209
330
205
100
AcDbEntity
  8
0
  6
CONTINUOUS
 62
     3
100
AcDbLine
 10
160.492801
 20
104.863816
 30
0.0
 11
160.516277
 21
104.858813
 31
0.0
  0
LINE
  5
20A
330
205
100
AcDbEntity
  8
0
  6
CONTINUOUS
 62
     3
100
AcDbLine
 10
160.516277
 20
104.858813
 30
0.0
 11
160.539594
 21
104.853808
 31
0.0
  0
LINE
  5
20B
330
205
100
AcDbEntity
  8
0
  6
CONTINUOUS
 62
     3
100
AcDbLine
 10
160.539594
 20
104.853808
 30
0.0
 11
160.562592
 21
104.848802
 31
0.0
  0
LINE
  5
20C
330
205
100
AcDbEntity
  8
0
  6
CONTINUOUS
 62
     3
100
AcDbLine
 10
160.562592
 20
104.848802
 30
0.0
 11
160.585112
 21
104.843793
 31
0.0
  0
LINE
  5
20D
330
205
100
AcDbEntity
  8
0
  6
CONTINUOUS
 62
     3
100
AcDbLine
 10
160.585112
 20
104.843793
 30
0.0
 11
160.606993
 21
104.83878
 31
0.0
  0
LINE
  5
20E
330
205
100
AcDbEntity
  8
0
  6
CONTINUOUS
 62
     3
100
AcDbLine
 10
160.606993
 20
104.83878
 30
0.0
 11
160.617645
 21
104.836272
 31
0.0
  0
LINE
  5
20F
330
205
100
AcDbEntity
  8
0
  6
CONTINUOUS
 62
     3
100
AcDbLine
 10
160.617645
 20
104.836272
 30
0.0
 11
160.628078
 21
104.833762
 31
0.0
  0
LINE
  5
210
330
205
100
AcDbEntity
  8
0
  6
CONTINUOUS
 62
     3
100
AcDbLine
 10
160.628078
 20
104.833762
 30
0.0
 11
160.638271
 21
104.831251
 31
0.0
  0
LINE
  5
211
330
205
100
AcDbEntity
  8
0
  6
CONTINUOUS
 62
     3
100
AcDbLine
 10
160.638271
 20
104.831251
 30
0.0
 11
160.648206
 21
104.828739
 31
0.0
  0
LINE
  5
212
330
205
100
AcDbEntity
  8
0
  6
CONTINUOUS
 62
     3
100
AcDbLine
 10
160.648206
 20
104.828739
 30
0.0
 11
160.657861
 21
104.826224
 31
0.0
  0
LINE
  5
213
330
205
100
AcDbEntity
  8
0
  6
CONTINUOUS
 62
     3
100
AcDbLine
 10
160.657861
 20
104.826224
 30
0.0
 11
160.667217
 21
104.823708
 31
0.0
  0
LINE
  5
214
330
205
100
AcDbEntity
  8
0
  6
CONTINUOUS
 62
     3
100
AcDbLine
 10
160.667217
 20
104.823708
 30
0.0
 11
160.676255
 21
104.82119
 31
0.0
  0
LINE
  5
215
330
205
100
AcDbEntity
  8
0
  6
CONTINUOUS
 62
     3
100
AcDbLine
 10
160.676255
 20
104.82119
 30
0.0
 11
160.684953
 21
104.81867
 31
0.0
  0
LINE
  5
216
330
205
100
AcDbEntity
  8
0
  6
CONTINUOUS
 62
     3
100
AcDbLine
 10
160.684953
 20
104.81867
 30
0.0
 11
160.693293
 21
104.816148
 31
0.0
  0
LINE
  5
217
330
205
100
AcDbEntity
  8
0
  6
CONTINUOUS
 62
     3
100
AcDbLine
 10
160.693293
 20
104.816148
 30
0.0
 11
160.701254
 21
104.813624
 31
0.0
  0
LINE
  5
218
330
205
100
AcDbEntity
  8
0
  6
CONTINUOUS
 62
     3
100
AcDbLine
 10
160.701254
 20
104.813624
 30
0.0
 11
160.708817
 21
104.811097
 31
0.0
  0
LINE
  5
219
330
205
100
AcDbEntity
  8
0
  6
CONTINUOUS
 62
     3
100
AcDbLine
 10
160.708817
 20
104.811097
 30
0.0
 11
160.715961
 21
104.808568
 31
0.0
  0
LINE
  5
21A
330
205
100
AcDbEntity
  8
0
  6
CONTINUOUS
 62
     3
100
AcDbLine
 10
160.715961
 20
104.808568
 30
0.0
 11
160.722666
 21
104.806036
 31
0.0
  0
LINE
  5
21B
330
205
100
AcDbEntity
  8
0
  6
CONTINUOUS
 62
     3
100
AcDbLine
 10
160.722666
 20
104.806036
 30
0.0
 11
160.728913
 21
104.803501
 31
0.0
  0
LINE
  5
21C
330
205
100
AcDbEntity
  8
0
  6
CONTINUOUS
 62
     3
100
AcDbLine
 10
160.728913
 20
104.803501
 30
0.0
 11
160.734681
 21
104.800963
 31
0.0
  0
LINE
  5
21D
330
205
100
AcDbEntity
  8
0
  6
CONTINUOUS
 62
     3
100
AcDbLine
 10
160.734681
 20
104.800963
 30
0.0
 11
160.739952
 21
104.798423
 31
0.0
  0
LINE
  5
21E
330
205
100
AcDbEntity
  8
0
  6
CONTINUOUS
 62
     3
100
AcDbLine
 10
160.739952
 20
104.798423
 30
0.0
 11
160.744704
 21
104.795879
 31
0.0
  0
LINE
  5
21F
330
205
100
AcDbEntity
  8
0
  6
CONTINUOUS
 62
     3
100
AcDbLine
 10
160.744704
 20
104.795879
 30
0.0
 11
160.748918
 21
104.793332
 31
0.0
  0
LINE
  5
220
330
205
100
AcDbEntity
  8
0
  6
CONTINUOUS
 62
     3
100
AcDbLine
 10
160.748918
 20
104.793332
 30
0.0
 11
160.752573
 21
104.790782
 31
0.0
  0
LINE
  5
221
330
205
100
AcDbEntity
  8
0
  6
CONTINUOUS
 62
     3
100
AcDbLine
 10
160.752573
 20
104.790782
 30
0.0
 11
160.755651
 21
104.788228
 31
0.0
  0
LINE
  5
222
330
205
100
AcDbEntity
  8
0
  6
CONTINUOUS
 62
     3
100
AcDbLine
 10
160.755651
 20
104.788228
 30
0.0
 11
160.758131
 21
104.785671
 31
0.0
  0
LINE
  5
223
330
205
100
AcDbEntity
  8
0
  6
CONTINUOUS
 62
     3
100
AcDbLine
 10
160.758131
 20
104.785671
 30
0.0
 11
160.759993
 21
104.78311
 31
0.0
  0
LINE
  5
224
330
205
100
AcDbEntity
  8
0
  6
CONTINUOUS
 62
     3
100
AcDbLine
 10
160.759993
 20
104.78311
 30
0.0
 11
160.761125
 21
104.78086
 31
0.0
  0
LINE
  5
225
330
205
100
AcDbEntity
  8
0
  6
CONTINUOUS
 62
     3
100
AcDbLine
 10
160.761125
 20
104.78086
 30
0.0
 11
160.761888
 21
104.778608
 31
0.0
  0
LINE
  5
226
330
205
100
AcDbEntity
  8
0
  6
CONTINUOUS
 62
     3
100
AcDbLine
 10
160.761888
 20
104.778608
 30
0.0
 11
160.762801
 21
104.7741
 31
0.0
  0
ENDBLK
  5
207
330
205
100
AcDbEntity
  8
0
100
AcDbBlockEnd
  0
BLOCK
  5
22D
330
22C
100
AcDbEntity
  8
0
100
AcDbBlockBegin
  2
BLKF022
 70
     0
 71
     0
 10
0.0
 20
0.0
 30
0.0
  3
BLKF022
  1

  0
LINE
  5
230
330
22C
100
AcDbEntity
  8
0
  6
CONTINUOUS
 62
     3
100
AcDbLine
 10
157.522801
 20
101.909371
 30
0.0
 11
157.512011
 21
101.771243
 31
0.0
  0
LINE
  5
231
330
22C
100
AcDbEntity
  8
0
  6
CONTINUOUS
 62
     3
100
AcDbLine
 10
157.512011
 20
101.771243
 30
0.0
 11
157.500432
 21
101.633274
 31
0.0
  0
LINE
  5
232
330
22C
100
AcDbEntity
  8
0
  6
CONTINUOUS
 62
     3
100
AcDbLine
 10
157.500432
 20
101.633274
 30
0.0
 11
157.494099
 21
101.564399
 31
0.0
  0
LINE
  5
233
330
22C
100
AcDbEntity
  8
0
  6
CONTINUOUS
 62
     3
100
AcDbLine
 10
157.494099
 20
101.564399
 30
0.0
 11
157.487272
 21
101.495624
 31
0.0
  0
LINE
  5
234
330
22C
100
AcDbEntity
  8
0
  6
CONTINUOUS
 62
     3
100
AcDbLine
 10
157.487272
 20
101.495624
 30
0.0
 11
157.479853
 21
101.426968
 31
0.0
  0
LINE
  5
235
330
22C
100
AcDbEntity
  8
0
  6
CONTINUOUS
 62
     3
100
AcDbLine
 10
157.479853
 20
101.426968
 30
0.0
 11
157.471742
 21
101.358452
 31
0.0
  0
LINE
  5
236
330
22C
100
AcDbEntity
  8
0
  6
CONTINUOUS
 62
     3
100
AcDbLine
 10
157.471742
 20
101.358452
 30
0.0
 11
157.462841
 21
101.290094
 31
0.0
  0
LINE
  5
237
330
22C
100
AcDbEntity
  8
0
  6
CONTINUOUS
 62
     3
100
AcDbLine
 10
157.462841
 20
101.290094
 30
0.0
 11
157.453051
 21
101.221916
 31
0.0
  0
LINE
  5
238
330
22C
100
AcDbEntity
  8
0
  6
CONTINUOUS
 62
     3
100
AcDbLine
 10
157.453051
 20
101.221916
 30
0.0
 11
157.442274
 21
101.153938
 31
0.0
  0
LINE
  5
239
330
22C
100
AcDbEntity
  8
0
  6
CONTINUOUS
 62
     3
100
AcDbLine
 10
157.442274
 20
101.153938
 30
0.0
 11
157.43041
 21
101.086178
 31
0.0
  0
LINE
  5
23A
330
22C
100
AcDbEntity
  8
0
  6
CONTINUOUS
 62
     3
100
AcDbLine
 10
157.43041
 20
101.086178
 30
0.0
 11
157.417361
 21
101.018657
 31
0.0
  0
LINE
  5
23B
330
22C
100
AcDbEntity
  8
0
  6
CONTINUOUS
 62
     3
100
AcDbLine
 10
157.417361
 20
101.018657
 30
0.0
 11
157.403027
 21
100.951394
 31
0.0
  0
LINE
  5
23C
330
22C
100
AcDbEntity
  8
0
  6
CONTINUOUS
 62
     3
100
AcDbLine
 10
157.403027
 20
100.951394
 30
0.0
 11
157.387311
 21
100.884411
 31
0.0
  0
LINE
  5
23D
330
22C
100
AcDbEntity
  8
0
  6
CONTINUOUS
 62
     3
100
AcDbLine
 10
157.387311
 20
100.884411
 30
0.0
 11
157.370114
 21
100.817726
 31
0.0
  0
LINE
  5
23E
330
22C
100
AcDbEntity
  8
0
  6
CONTINUOUS
 62
     3
100
AcDbLine
 10
157.370114
 20
100.817726
 30
0.0
 11
157.357148
 21
100.771177
 31
0.0
  0
LINE
  5
23F
330
22C
100
AcDbEntity
  8
0
  6
CONTINUOUS
 62
     3
100
AcDbLine
 10
157.357148
 20
100.771177
 30
0.0
 11
157.343502
 21
100.724764
 31
0.0
  0
LINE
  5
240
330
22C
100
AcDbEntity
  8
0
  6
CONTINUOUS
 62
     3
100
AcDbLine
 10
157.343502
 20
100.724764
 30
0.0
 11
157.329274
 21
100.678469
 31
0.0
  0
LINE
  5
241
330
22C
100
AcDbEntity
  8
0
  6
CONTINUOUS
 62
     3
100
AcDbLine
 10
157.329274
 20
100.678469
 30
0.0
 11
157.314562
 21
100.632271
 31
0.0
  0
LINE
  5
242
330
22C
100
AcDbEntity
  8
0
  6
CONTINUOUS
 62
     3
100
AcDbLine
 10
157.314562
 20
100.632271
 30
0.0
 11
157.284069
 21
100.540091
 31
0.0
  0
LINE
  5
243
330
22C
100
AcDbEntity
  8
0
  6
CONTINUOUS
 62
     3
100
AcDbLine
 10
157.284069
 20
100.540091
 30
0.0
 11
157.2528
 21
100.448067
 31
0.0
  0
ENDBLK
  5
22E
330
22C
100
AcDbEntity
  8
0
100
AcDbBlockEnd
  0
BLOCK
  5
249
330
248
100
AcDbEntity
  8
0
100
AcDbBlockBegin
  2
BLKF023
 70
     0
 71
     0
 10
0.0
 20
0.0
 30
0.0
  3
BLKF023
  1

  0
LINE
  5
24C
330
248
100
AcDbEntity
  8
0
  6
CONTINUOUS
 62
     3
100
AcDbLine
 10
157.522801
 20
97.660555
 30
0.0
 11
157.522501
 21
97.626568
 31
0.0
  0
LINE
  5
24D
330
248
100
AcDbEntity
  8
0
  6
CONTINUOUS
 62
     3
100
AcDbLine
 10
157.522501
 20
97.626568
 30
0.0
 11
157.521878
 21
97.592605
 31
0.0
  0
LINE
  5
24E
330
248
100
AcDbEntity
  8
0
  6
CONTINUOUS
 62
     3
100
AcDbLine
 10
157.521878
 20
97.592605
 30
0.0
 11
157.520602
 21
97.557302
 31
0.0
  0
LINE
  5
24F
330
248
100
AcDbEntity
  8
0
  6
CONTINUOUS
 62
     3
100
AcDbLine
 10
157.520602
 20
97.557302
 30
0.0
 11
157.518647
 21
97.522048
 31
0.0
  0
LINE
  5
250
330
248
100
AcDbEntity
  8
0
  6
CONTINUOUS
 62
     3
100
AcDbLine
 10
157.518647
 20
97.522048
 30
0.0
 11
157.516034
 21
97.486843
 31
0.0
  0
LINE
  5
251
330
248
100
AcDbEntity
  8
0
  6
CONTINUOUS
 62
     3
100
AcDbLine
 10
157.516034
 20
97.486843
 30
0.0
 11
157.512786
 21
97.451684
 31
0.0
  0
LINE
  5
252
330
248
100
AcDbEntity
  8
0
  6
CONTINUOUS
 62
     3
100
AcDbLine
 10
157.512786
 20
97.451684
 30
0.0
 11
157.508924
 21
97.416571
 31
0.0
  0
LINE
  5
253
330
248
100
AcDbEntity
  8
0
  6
CONTINUOUS
 62
     3
100
AcDbLine
 10
157.508924
 20
97.416571
 30
0.0
 11
157.504471
 21
97.381501
 31
0.0
  0
LINE
  5
254
330
248
100
AcDbEntity
  8
0
  6
CONTINUOUS
 62
     3
100
AcDbLine
 10
157.504471
 20
97.381501
 30
0.0
 11
157.499448
 21
97.346472
 31
0.0
  0
LINE
  5
255
330
248
100
AcDbEntity
  8
0
  6
CONTINUOUS
 62
     3
100
AcDbLine
 10
157.499448
 20
97.346472
 30
0.0
 11
157.493877
 21
97.311484
 31
0.0
  0
LINE
  5
256
330
248
100
AcDbEntity
  8
0
  6
CONTINUOUS
 62
     3
100
AcDbLine
 10
157.493877
 20
97.311484
 30
0.0
 11
157.48778
 21
97.276535
 31
0.0
  0
LINE
  5
257
330
248
100
AcDbEntity
  8
0
  6
CONTINUOUS
 62
     3
100
AcDbLine
 10
157.48778
 20
97.276535
 30
0.0
 11
157.481179
 21
97.241623
 31
0.0
  0
LINE
  5
258
330
248
100
AcDbEntity
  8
0
  6
CONTINUOUS
 62
     3
100
AcDbLine
 10
157.481179
 20
97.241623
 30
0.0
 11
157.474096
 21
97.206746
 31
0.0
  0
LINE
  5
259
330
248
100
AcDbEntity
  8
0
  6
CONTINUOUS
 62
     3
100
AcDbLine
 10
157.474096
 20
97.206746
 30
0.0
 11
157.466553
 21
97.171903
 31
0.0
  0
LINE
  5
25A
330
248
100
AcDbEntity
  8
0
  6
CONTINUOUS
 62
     3
100
AcDbLine
 10
157.466553
 20
97.171903
 30
0.0
 11
157.458571
 21
97.137092
 31
0.0
  0
LINE
  5
25B
330
248
100
AcDbEntity
  8
0
  6
CONTINUOUS
 62
     3
100
AcDbLine
 10
157.458571
 20
97.137092
 30
0.0
 11
157.450174
 21
97.102311
 31
0.0
  0
LINE
  5
25C
330
248
100
AcDbEntity
  8
0
  6
CONTINUOUS
 62
     3
100
AcDbLine
 10
157.450174
 20
97.102311
 30
0.0
 11
157.441381
 21
97.06756
 31
0.0
  0
LINE
  5
25D
330
248
100
AcDbEntity
  8
0
  6
CONTINUOUS
 62
     3
100
AcDbLine
 10
157.441381
 20
97.06756
 30
0.0
 11
157.432217
 21
97.032836
 31
0.0
  0
LINE
  5
25E
330
248
100
AcDbEntity
  8
0
  6
CONTINUOUS
 62
     3
100
AcDbLine
 10
157.432217
 20
97.032836
 30
0.0
 11
157.422701
 21
96.998138
 31
0.0
  0
LINE
  5
25F
330
248
100
AcDbEntity
  8
0
  6
CONTINUOUS
 62
     3
100
AcDbLine
 10
157.422701
 20
96.998138
 30
0.0
 11
157.412857
 21
96.963464
 31
0.0
  0
LINE
  5
260
330
248
100
AcDbEntity
  8
0
  6
CONTINUOUS
 62
     3
100
AcDbLine
 10
157.412857
 20
96.963464
 30
0.0
 11
157.402707
 21
96.928812
 31
0.0
  0
LINE
  5
261
330
248
100
AcDbEntity
  8
0
  6
CONTINUOUS
 62
     3
100
AcDbLine
 10
157.402707
 20
96.928812
 30
0.0
 11
157.392271
 21
96.894182
 31
0.0
  0
LINE
  5
262
330
248
100
AcDbEntity
  8
0
  6
CONTINUOUS
 62
     3
100
AcDbLine
 10
157.392271
 20
96.894182
 30
0.0
 11
157.381572
 21
96.85957
 31
0.0
  0
LINE
  5
263
330
248
100
AcDbEntity
  8
0
  6
CONTINUOUS
 62
     3
100
AcDbLine
 10
157.381572
 20
96.85957
 30
0.0
 11
157.370633
 21
96.824977
 31
0.0
  0
LINE
  5
264
330
248
100
AcDbEntity
  8
0
  6
CONTINUOUS
 62
     3
100
AcDbLine
 10
157.370633
 20
96.824977
 30
0.0
 11
157.359474
 21
96.790399
 31
0.0
  0
LINE
  5
265
330
248
100
AcDbEntity
  8
0
  6
CONTINUOUS
 62
     3
100
AcDbLine
 10
157.359474
 20
96.790399
 30
0.0
 11
157.348118
 21
96.755836
 31
0.0
  0
LINE
  5
266
330
248
100
AcDbEntity
  8
0
  6
CONTINUOUS
 62
     3
100
AcDbLine
 10
157.348118
 20
96.755836
 30
0.0
 11
157.336587
 21
96.721286
 31
0.0
  0
LINE
  5
267
330
248
100
AcDbEntity
  8
0
  6
CONTINUOUS
 62
     3
100
AcDbLine
 10
157.336587
 20
96.721286
 30
0.0
 11
157.324902
 21
96.686747
 31
0.0
  0
LINE
  5
268
330
248
100
AcDbEntity
  8
0
  6
CONTINUOUS
 62
     3
100
AcDbLine
 10
157.324902
 20
96.686747
 30
0.0
 11
157.313086
 21
96.652218
 31
0.0
  0
LINE
  5
269
330
248
100
AcDbEntity
  8
0
  6
CONTINUOUS
 62
     3
100
AcDbLine
 10
157.313086
 20
96.652218
 30
0.0
 11
157.30116
 21
96.617697
 31
0.0
  0
LINE
  5
26A
330
248
100
AcDbEntity
  8
0
  6
CONTINUOUS
 62
     3
100
AcDbLine
 10
157.30116
 20
96.617697
 30
0.0
 11
157.277068
 21
96.548672
 31
0.0
  0
LINE
  5
26B
330
248
100
AcDbEntity
  8
0
  6
CONTINUOUS
 62
     3
100
AcDbLine
 10
157.277068
 20
96.548672
 30
0.0
 11
157.2528
 21
96.47966
 31
0.0
  0
ENDBLK
  5
24A
330
248
100
AcDbEntity
  8
0
100
AcDbBlockEnd
  0
BLOCK
  5
26E
330
26D
100
AcDbEntity
  8
0
100
AcDbBlockBegin
  2
BLKF024
 70
     0
 71
     0
 10
0.0
 20
0.0
 30
0.0
  3
BLKF024
  1

  0
LINE
  5
271
330
26D
100
AcDbEntity
  8
0
  6
CONTINUOUS
 62
     3
100
AcDbLine
 10
157.2528
 20
103.370674
 30
0.0
 11
157.276277
 21
103.289179
 31
0.0
  0
LINE
  5
272
330
26D
100
AcDbEntity
  8
0
  6
CONTINUOUS
 62
     3
100
AcDbLine
 10
157.276277
 20
103.289179
 30
0.0
 11
157.299594
 21
103.207667
 31
0.0
  0
LINE
  5
273
330
26D
100
AcDbEntity
  8
0
  6
CONTINUOUS
 62
     3
100
AcDbLine
 10
157.299594
 20
103.207667
 30
0.0
 11
157.322592
 21
103.126125
 31
0.0
  0
LINE
  5
274
330
26D
100
AcDbEntity
  8
0
  6
CONTINUOUS
 62
     3
100
AcDbLine
 10
157.322592
 20
103.126125
 30
0.0
 11
157.345112
 21
103.044536
 31
0.0
  0
LINE
  5
275
330
26D
100
AcDbEntity
  8
0
  6
CONTINUOUS
 62
     3
100
AcDbLine
 10
157.345112
 20
103.044536
 30
0.0
 11
157.366995
 21
102.962884
 31
0.0
  0
LINE
  5
276
330
26D
100
AcDbEntity
  8
0
  6
CONTINUOUS
 62
     3
100
AcDbLine
 10
157.366995
 20
102.962884
 30
0.0
 11
157.377647
 21
102.92203
 31
0.0
  0
LINE
  5
277
330
26D
100
AcDbEntity
  8
0
  6
CONTINUOUS
 62
     3
100
AcDbLine
 10
157.377647
 20
102.92203
 30
0.0
 11
157.388079
 21
102.881154
 31
0.0
  0
LINE
  5
278
330
26D
100
AcDbEntity
  8
0
  6
CONTINUOUS
 62
     3
100
AcDbLine
 10
157.388079
 20
102.881154
 30
0.0
 11
157.398273
 21
102.840255
 31
0.0
  0
LINE
  5
279
330
26D
100
AcDbEntity
  8
0
  6
CONTINUOUS
 62
     3
100
AcDbLine
 10
157.398273
 20
102.840255
 30
0.0
 11
157.408207
 21
102.79933
 31
0.0
  0
LINE
  5
27A
330
26D
100
AcDbEntity
  8
0
  6
CONTINUOUS
 62
     3
100
AcDbLine
 10
157.408207
 20
102.79933
 30
0.0
 11
157.417863
 21
102.758378
 31
0.0
  0
LINE
  5
27B
330
26D
100
AcDbEntity
  8
0
  6
CONTINUOUS
 62
     3
100
AcDbLine
 10
157.417863
 20
102.758378
 30
0.0
 11
157.427219
 21
102.717397
 31
0.0
  0
LINE
  5
27C
330
26D
100
AcDbEntity
  8
0
  6
CONTINUOUS
 62
     3
100
AcDbLine
 10
157.427219
 20
102.717397
 30
0.0
 11
157.436257
 21
102.676385
 31
0.0
  0
LINE
  5
27D
330
26D
100
AcDbEntity
  8
0
  6
CONTINUOUS
 62
     3
100
AcDbLine
 10
157.436257
 20
102.676385
 30
0.0
 11
157.444955
 21
102.635339
 31
0.0
  0
LINE
  5
27E
330
26D
100
AcDbEntity
  8
0
  6
CONTINUOUS
 62
     3
100
AcDbLine
 10
157.444955
 20
102.635339
 30
0.0
 11
157.453295
 21
102.594258
 31
0.0
  0
LINE
  5
27F
330
26D
100
AcDbEntity
  8
0
  6
CONTINUOUS
 62
     3
100
AcDbLine
 10
157.453295
 20
102.594258
 30
0.0
 11
157.461256
 21
102.553141
 31
0.0
  0
LINE
  5
280
330
26D
100
AcDbEntity
  8
0
  6
CONTINUOUS
 62
     3
100
AcDbLine
 10
157.461256
 20
102.553141
 30
0.0
 11
157.468819
 21
102.511984
 31
0.0
  0
LINE
  5
281
330
26D
100
AcDbEntity
  8
0
  6
CONTINUOUS
 62
     3
100
AcDbLine
 10
157.468819
 20
102.511984
 30
0.0
 11
157.475962
 21
102.470786
 31
0.0
  0
LINE
  5
282
330
26D
100
AcDbEntity
  8
0
  6
CONTINUOUS
 62
     3
100
AcDbLine
 10
157.475962
 20
102.470786
 30
0.0
 11
157.482668
 21
102.429545
 31
0.0
  0
LINE
  5
283
330
26D
100
AcDbEntity
  8
0
  6
CONTINUOUS
 62
     3
100
AcDbLine
 10
157.482668
 20
102.429545
 30
0.0
 11
157.488915
 21
102.388259
 31
0.0
  0
LINE
  5
284
330
26D
100
AcDbEntity
  8
0
  6
CONTINUOUS
 62
     3
100
AcDbLine
 10
157.488915
 20
102.388259
 30
0.0
 11
157.494683
 21
102.346926
 31
0.0
  0
LINE
  5
285
330
26D
100
AcDbEntity
  8
0
  6
CONTINUOUS
 62
     3
100
AcDbLine
 10
157.494683
 20
102.346926
 30
0.0
 11
157.499953
 21
102.305545
 31
0.0
  0
LINE
  5
286
330
26D
100
AcDbEntity
  8
0
  6
CONTINUOUS
 62
     3
100
AcDbLine
 10
157.499953
 20
102.305545
 30
0.0
 11
157.504705
 21
102.264113
 31
0.0
  0
LINE
  5
287
330
26D
100
AcDbEntity
  8
0
  6
CONTINUOUS
 62
     3
100
AcDbLine
 10
157.504705
 20
102.264113
 30
0.0
 11
157.508919
 21
102.222628
 31
0.0
  0
LINE
  5
288
330
26D
100
AcDbEntity
  8
0
  6
CONTINUOUS
 62
     3
100
AcDbLine
 10
157.508919
 20
102.222628
 30
0.0
 11
157.512575
 21
102.181088
 31
0.0
  0
LINE
  5
289
330
26D
100
AcDbEntity
  8
0
  6
CONTINUOUS
 62
     3
100
AcDbLine
 10
157.512575
 20
102.181088
 30
0.0
 11
157.515652
 21
102.139492
 31
0.0
  0
LINE
  5
28A
330
26D
100
AcDbEntity
  8
0
  6
CONTINUOUS
 62
     3
100
AcDbLine
 10
157.515652
 20
102.139492
 30
0.0
 11
157.518132
 21
102.097837
 31
0.0
  0
LINE
  5
28B
330
26D
100
AcDbEntity
  8
0
  6
CONTINUOUS
 62
     3
100
AcDbLine
 10
157.518132
 20
102.097837
 30
0.0
 11
157.519993
 21
102.056121
 31
0.0
  0
LINE
  5
28C
330
26D
100
AcDbEntity
  8
0
  6
CONTINUOUS
 62
     3
100
AcDbLine
 10
157.519993
 20
102.056121
 30
0.0
 11
157.521125
 21
102.019476
 31
0.0
  0
LINE
  5
28D
330
26D
100
AcDbEntity
  8
0
  6
CONTINUOUS
 62
     3
100
AcDbLine
 10
157.521125
 20
102.019476
 30
0.0
 11
157.521888
 21
101.982794
 31
0.0
  0
LINE
  5
28E
330
26D
100
AcDbEntity
  8
0
  6
CONTINUOUS
 62
     3
100
AcDbLine
 10
157.521888
 20
101.982794
 30
0.0
 11
157.522801
 21
101.909371
 31
0.0
  0
ENDBLK
  5
26F
330
26D
100
AcDbEntity
  8
0
100
AcDbBlockEnd
  0
BLOCK
  5
292
330
291
100
AcDbEntity
  8
0
100
AcDbBlockBegin
  2
BLKF025
 70
     0
 71
     0
 10
0.0
 20
0.0
 30
0.0
  3
BLKF025
  1

  0
LINE
  5
295
330
291
100
AcDbEntity
  8
0
  6
CONTINUOUS
 62
     3
100
AcDbLine
 10
157.522801
 20
104.710148
 30
0.0
 11
157.522501
 21
104.702078
 31
0.0
  0
LINE
  5
296
330
291
100
AcDbEntity
  8
0
  6
CONTINUOUS
 62
     3
100
AcDbLine
 10
157.522501
 20
104.702078
 30
0.0
 11
157.521878
 21
104.694013
 31
0.0
  0
LINE
  5
297
330
291
100
AcDbEntity
  8
0
  6
CONTINUOUS
 62
     3
100
AcDbLine
 10
157.521878
 20
104.694013
 30
0.0
 11
157.520602
 21
104.68563
 31
0.0
  0
LINE
  5
298
330
291
100
AcDbEntity
  8
0
  6
CONTINUOUS
 62
     3
100
AcDbLine
 10
157.520602
 20
104.68563
 30
0.0
 11
157.518647
 21
104.677259
 31
0.0
  0
LINE
  5
299
330
291
100
AcDbEntity
  8
0
  6
CONTINUOUS
 62
     3
100
AcDbLine
 10
157.518647
 20
104.677259
 30
0.0
 11
157.516034
 21
104.6689
 31
0.0
  0
LINE
  5
29A
330
291
100
AcDbEntity
  8
0
  6
CONTINUOUS
 62
     3
100
AcDbLine
 10
157.516034
 20
104.6689
 30
0.0
 11
157.512786
 21
104.660551
 31
0.0
  0
LINE
  5
29B
330
291
100
AcDbEntity
  8
0
  6
CONTINUOUS
 62
     3
100
AcDbLine
 10
157.512786
 20
104.660551
 30
0.0
 11
157.508924
 21
104.652213
 31
0.0
  0
LINE
  5
29C
330
291
100
AcDbEntity
  8
0
  6
CONTINUOUS
 62
     3
100
AcDbLine
 10
157.508924
 20
104.652213
 30
0.0
 11
157.504471
 21
104.643886
 31
0.0
  0
LINE
  5
29D
330
291
100
AcDbEntity
  8
0
  6
CONTINUOUS
 62
     3
100
AcDbLine
 10
157.504471
 20
104.643886
 30
0.0
 11
157.499448
 21
104.635568
 31
0.0
  0
LINE
  5
29E
330
291
100
AcDbEntity
  8
0
  6
CONTINUOUS
 62
     3
100
AcDbLine
 10
157.499448
 20
104.635568
 30
0.0
 11
157.493877
 21
104.62726
 31
0.0
  0
LINE
  5
29F
330
291
100
AcDbEntity
  8
0
  6
CONTINUOUS
 62
     3
100
AcDbLine
 10
157.493877
 20
104.62726
 30
0.0
 11
157.48778
 21
104.618961
 31
0.0
  0
LINE
  5
2A0
330
291
100
AcDbEntity
  8
0
  6
CONTINUOUS
 62
     3
100
AcDbLine
 10
157.48778
 20
104.618961
 30
0.0
 11
157.481179
 21
104.610671
 31
0.0
  0
LINE
  5
2A1
330
291
100
AcDbEntity
  8
0
  6
CONTINUOUS
 62
     3
100
AcDbLine
 10
157.481179
 20
104.610671
 30
0.0
 11
157.474096
 21
104.602389
 31
0.0
  0
LINE
  5
2A2
330
291
100
AcDbEntity
  8
0
  6
CONTINUOUS
 62
     3
100
AcDbLine
 10
157.474096
 20
104.602389
 30
0.0
 11
157.466553
 21
104.594116
 31
0.0
  0
LINE
  5
2A3
330
291
100
AcDbEntity
  8
0
  6
CONTINUOUS
 62
     3
100
AcDbLine
 10
157.466553
 20
104.594116
 30
0.0
 11
157.458571
 21
104.58585
 31
0.0
  0
LINE
  5
2A4
330
291
100
AcDbEntity
  8
0
  6
CONTINUOUS
 62
     3
100
AcDbLine
 10
157.458571
 20
104.58585
 30
0.0
 11
157.450174
 21
104.577591
 31
0.0
  0
LINE
  5
2A5
330
291
100
AcDbEntity
  8
0
  6
CONTINUOUS
 62
     3
100
AcDbLine
 10
157.450174
 20
104.577591
 30
0.0
 11
157.441381
 21
104.569339
 31
0.0
  0
LINE
  5
2A6
330
291
100
AcDbEntity
  8
0
  6
CONTINUOUS
 62
     3
100
AcDbLine
 10
157.441381
 20
104.569339
 30
0.0
 11
157.432217
 21
104.561094
 31
0.0
  0
LINE
  5
2A7
330
291
100
AcDbEntity
  8
0
  6
CONTINUOUS
 62
     3
100
AcDbLine
 10
157.432217
 20
104.561094
 30
0.0
 11
157.422701
 21
104.552855
 31
0.0
  0
LINE
  5
2A8
330
291
100
AcDbEntity
  8
0
  6
CONTINUOUS
 62
     3
100
AcDbLine
 10
157.422701
 20
104.552855
 30
0.0
 11
157.412857
 21
104.544621
 31
0.0
  0
LINE
  5
2A9
330
291
100
AcDbEntity
  8
0
  6
CONTINUOUS
 62
     3
100
AcDbLine
 10
157.412857
 20
104.544621
 30
0.0
 11
157.402707
 21
104.536393
 31
0.0
  0
LINE
  5
2AA
330
291
100
AcDbEntity
  8
0
  6
CONTINUOUS
 62
     3
100
AcDbLine
 10
157.402707
 20
104.536393
 30
0.0
 11
157.392271
 21
104.52817
 31
0.0
  0
LINE
  5
2AB
330
291
100
AcDbEntity
  8
0
  6
CONTINUOUS
 62
     3
100
AcDbLine
 10
157.392271
 20
104.52817
 30
0.0
 11
157.381572
 21
104.519951
 31
0.0
  0
LINE
  5
2AC
330
291
100
AcDbEntity
  8
0
  6
CONTINUOUS
 62
     3
100
AcDbLine
 10
157.381572
 20
104.519951
 30
0.0
 11
157.370633
 21
104.511737
 31
0.0
  0
LINE
  5
2AD
330
291
100
AcDbEntity
  8
0
  6
CONTINUOUS
 62
     3
100
AcDbLine
 10
157.370633
 20
104.511737
 30
0.0
 11
157.359474
 21
104.503526
 31
0.0
  0
LINE
  5
2AE
330
291
100
AcDbEntity
  8
0
  6
CONTINUOUS
 62
     3
100
AcDbLine
 10
157.359474
 20
104.503526
 30
0.0
 11
157.348118
 21
104.495319
 31
0.0
  0
LINE
  5
2AF
330
291
100
AcDbEntity
  8
0
  6
CONTINUOUS
 62
     3
100
AcDbLine
 10
157.348118
 20
104.495319
 30
0.0
 11
157.336587
 21
104.487115
 31
0.0
  0
LINE
  5
2B0
330
291
100
AcDbEntity
  8
0
  6
CONTINUOUS
 62
     3
100
AcDbLine
 10
157.336587
 20
104.487115
 30
0.0
 11
157.324902
 21
104.478914
 31
0.0
  0
LINE
  5
2B1
330
291
100
AcDbEntity
  8
0
  6
CONTINUOUS
 62
     3
100
AcDbLine
 10
157.324902
 20
104.478914
 30
0.0
 11
157.313086
 21
104.470715
 31
0.0
  0
LINE
  5
2B2
330
291
100
AcDbEntity
  8
0
  6
CONTINUOUS
 62
     3
100
AcDbLine
 10
157.313086
 20
104.470715
 30
0.0
 11
157.30116
 21
104.462517
 31
0.0
  0
LINE
  5
2B3
330
291
100
AcDbEntity
  8
0
  6
CONTINUOUS
 62
     3
100
AcDbLine
 10
157.30116
 20
104.462517
 30
0.0
 11
157.277068
 21
104.446127
 31
0.0
  0
LINE
  5
2B4
330
291
100
AcDbEntity
  8
0
  6
CONTINUOUS
 62
     3
100
AcDbLine
 10
157.277068
 20
104.446127
 30
0.0
 11
157.2528
 21
104.42974
 31
0.0
  0
ENDBLK
  5
293
330
291
100
AcDbEntity
  8
0
100
AcDbBlockEnd
  0
BLOCK
  5
2BE
330
2BD
100
AcDbEntity
  8
0
100
AcDbBlockBegin
  2
BLKF026
 70
     0
 71
     0
 10
0.0
 20
0.0
 30
0.0
  3
BLKF026
  1

  0
LINE
  5
2C1
330
2BD
100
AcDbEntity
  8
0
  6
CONTINUOUS
 62
     3
100
AcDbLine
 10
160.492801
 20
112.376722
 30
0.0
 11
160.510492
 21
112.33205
 31
0.0
  0
LINE
  5
2C2
330
2BD
100
AcDbEntity
  8
0
  6
CONTINUOUS
 62
     3
100
AcDbLine
 10
160.510492
 20
112.33205
 30
0.0
 11
160.52795
 21
112.28732
 31
0.0
  0
LINE
  5
2C3
330
2BD
100
AcDbEntity
  8
0
  6
CONTINUOUS
 62
     3
100
AcDbLine
 10
160.52795
 20
112.28732
 30
0.0
 11
160.544944
 21
112.242473
 31
0.0
  0
LINE
  5
2C4
330
2BD
100
AcDbEntity
  8
0
  6
CONTINUOUS
 62
     3
100
AcDbLine
 10
160.544944
 20
112.242473
 30
0.0
 11
160.561239
 21
112.197451
 31
0.0
  0
LINE
  5
2C5
330
2BD
100
AcDbEntity
  8
0
  6
CONTINUOUS
 62
     3
100
AcDbLine
 10
160.561239
 20
112.197451
 30
0.0
 11
160.57259
 21
112.164411
 31
0.0
  0
LINE
  5
2C6
330
2BD
100
AcDbEntity
  8
0
  6
CONTINUOUS
 62
     3
100
AcDbLine
 10
160.57259
 20
112.164411
 30
0.0
 11
160.58346
 21
112.131252
 31
0.0
  0
LINE
  5
2C7
330
2BD
100
AcDbEntity
  8
0
  6
CONTINUOUS
 62
     3
100
AcDbLine
 10
160.58346
 20
112.131252
 30
0.0
 11
160.593863
 21
112.097975
 31
0.0
  0
LINE
  5
2C8
330
2BD
100
AcDbEntity
  8
0
  6
CONTINUOUS
 62
     3
100
AcDbLine
 10
160.593863
 20
112.097975
 30
0.0
 11
160.603817
 21
112.064585
 31
0.0
  0
LINE
  5
2C9
330
2BD
100
AcDbEntity
  8
0
  6
CONTINUOUS
 62
     3
100
AcDbLine
 10
160.603817
 20
112.064585
 30
0.0
 11
160.613337
 21
112.031087
 31
0.0
  0
LINE
  5
2CA
330
2BD
100
AcDbEntity
  8
0
  6
CONTINUOUS
 62
     3
100
AcDbLine
 10
160.613337
 20
112.031087
 30
0.0
 11
160.622437
 21
111.997483
 31
0.0
  0
LINE
  5
2CB
330
2BD
100
AcDbEntity
  8
0
  6
CONTINUOUS
 62
     3
100
AcDbLine
 10
160.622437
 20
111.997483
 30
0.0
 11
160.631133
 21
111.963778
 31
0.0
  0
LINE
  5
2CC
330
2BD
100
AcDbEntity
  8
0
  6
CONTINUOUS
 62
     3
100
AcDbLine
 10
160.631133
 20
111.963778
 30
0.0
 11
160.639442
 21
111.929976
 31
0.0
  0
LINE
  5
2CD
330
2BD
100
AcDbEntity
  8
0
  6
CONTINUOUS
 62
     3
100
AcDbLine
 10
160.639442
 20
111.929976
 30
0.0
 11
160.647378
 21
111.89608
 31
0.0
  0
LINE
  5
2CE
330
2BD
100
AcDbEntity
  8
0
  6
CONTINUOUS
 62
     3
100
AcDbLine
 10
160.647378
 20
111.89608
 30
0.0
 11
160.654958
 21
111.862095
 31
0.0
  0
LINE
  5
2CF
330
2BD
100
AcDbEntity
  8
0
  6
CONTINUOUS
 62
     3
100
AcDbLine
 10
160.654958
 20
111.862095
 30
0.0
 11
160.662195
 21
111.828023
 31
0.0
  0
LINE
  5
2D0
330
2BD
100
AcDbEntity
  8
0
  6
CONTINUOUS
 62
     3
100
AcDbLine
 10
160.662195
 20
111.828023
 30
0.0
 11
160.669107
 21
111.793871
 31
0.0
  0
LINE
  5
2D1
330
2BD
100
AcDbEntity
  8
0
  6
CONTINUOUS
 62
     3
100
AcDbLine
 10
160.669107
 20
111.793871
 30
0.0
 11
160.675709
 21
111.75964
 31
0.0
  0
LINE
  5
2D2
330
2BD
100
AcDbEntity
  8
0
  6
CONTINUOUS
 62
     3
100
AcDbLine
 10
160.675709
 20
111.75964
 30
0.0
 11
160.682015
 21
111.725335
 31
0.0
  0
LINE
  5
2D3
330
2BD
100
AcDbEntity
  8
0
  6
CONTINUOUS
 62
     3
100
AcDbLine
 10
160.682015
 20
111.725335
 30
0.0
 11
160.693806
 21
111.656519
 31
0.0
  0
LINE
  5
2D4
330
2BD
100
AcDbEntity
  8
0
  6
CONTINUOUS
 62
     3
100
AcDbLine
 10
160.693806
 20
111.656519
 30
0.0
 11
160.704603
 21
111.587454
 31
0.0
  0
LINE
  5
2D5
330
2BD
100
AcDbEntity
  8
0
  6
CONTINUOUS
 62
     3
100
AcDbLine
 10
160.704603
 20
111.587454
 30
0.0
 11
160.714531
 21
111.518171
 31
0.0
  0
LINE
  5
2D6
330
2BD
100
AcDbEntity
  8
0
  6
CONTINUOUS
 62
     3
100
AcDbLine
 10
160.714531
 20
111.518171
 30
0.0
 11
160.723714
 21
111.448701
 31
0.0
  0
LINE
  5
2D7
330
2BD
100
AcDbEntity
  8
0
  6
CONTINUOUS
 62
     3
100
AcDbLine
 10
160.723714
 20
111.448701
 30
0.0
 11
160.732277
 21
111.379075
 31
0.0
  0
LINE
  5
2D8
330
2BD
100
AcDbEntity
  8
0
  6
CONTINUOUS
 62
     3
100
AcDbLine
 10
160.732277
 20
111.379075
 30
0.0
 11
160.740342
 21
111.309325
 31
0.0
  0
LINE
  5
2D9
330
2BD
100
AcDbEntity
  8
0
  6
CONTINUOUS
 62
     3
100
AcDbLine
 10
160.740342
 20
111.309325
 30
0.0
 11
160.748036
 21
111.239481
 31
0.0
  0
LINE
  5
2DA
330
2BD
100
AcDbEntity
  8
0
  6
CONTINUOUS
 62
     3
100
AcDbLine
 10
160.748036
 20
111.239481
 30
0.0
 11
160.762801
 21
111.099638
 31
0.0
  0
ENDBLK
  5
2BF
330
2BD
100
AcDbEntity
  8
0
100
AcDbBlockEnd
  0
BLOCK
  5
2DC
330
2DB
100
AcDbEntity
  8
0
100
AcDbBlockBegin
  2
BLKF027
 70
     0
 71
     0
 10
0.0
 20
0.0
 30
0.0
  3
BLKF027
  1

  0
LINE
  5
2DF
330
2DB
100
AcDbEntity
  8
0
  6
CONTINUOUS
 62
     3
100
AcDbLine
 10
160.492801
 20
109.822553
 30
0.0
 11
160.51751
 21
109.898984
 31
0.0
  0
LINE
  5
2E0
330
2DB
100
AcDbEntity
  8
0
  6
CONTINUOUS
 62
     3
100
AcDbLine
 10
160.51751
 20
109.898984
 30
0.0
 11
160.529807
 21
109.937206
 31
0.0
  0
LINE
  5
2E1
330
2DB
100
AcDbEntity
  8
0
  6
CONTINUOUS
 62
     3
100
AcDbLine
 10
160.529807
 20
109.937206
 30
0.0
 11
160.542035
 21
109.975434
 31
0.0
  0
LINE
  5
2E2
330
2DB
100
AcDbEntity
  8
0
  6
CONTINUOUS
 62
     3
100
AcDbLine
 10
160.542035
 20
109.975434
 30
0.0
 11
160.554171
 21
110.013671
 31
0.0
  0
LINE
  5
2E3
330
2DB
100
AcDbEntity
  8
0
  6
CONTINUOUS
 62
     3
100
AcDbLine
 10
160.554171
 20
110.013671
 30
0.0
 11
160.566191
 21
110.05192
 31
0.0
  0
LINE
  5
2E4
330
2DB
100
AcDbEntity
  8
0
  6
CONTINUOUS
 62
     3
100
AcDbLine
 10
160.566191
 20
110.05192
 30
0.0
 11
160.578072
 21
110.090183
 31
0.0
  0
LINE
  5
2E5
330
2DB
100
AcDbEntity
  8
0
  6
CONTINUOUS
 62
     3
100
AcDbLine
 10
160.578072
 20
110.090183
 30
0.0
 11
160.589791
 21
110.128462
 31
0.0
  0
LINE
  5
2E6
330
2DB
100
AcDbEntity
  8
0
  6
CONTINUOUS
 62
     3
100
AcDbLine
 10
160.589791
 20
110.128462
 30
0.0
 11
160.601326
 21
110.166759
 31
0.0
  0
LINE
  5
2E7
330
2DB
100
AcDbEntity
  8
0
  6
CONTINUOUS
 62
     3
100
AcDbLine
 10
160.601326
 20
110.166759
 30
0.0
 11
160.612653
 21
110.205078
 31
0.0
  0
LINE
  5
2E8
330
2DB
100
AcDbEntity
  8
0
  6
CONTINUOUS
 62
     3
100
AcDbLine
 10
160.612653
 20
110.205078
 30
0.0
 11
160.623749
 21
110.243419
 31
0.0
  0
LINE
  5
2E9
330
2DB
100
AcDbEntity
  8
0
  6
CONTINUOUS
 62
     3
100
AcDbLine
 10
160.623749
 20
110.243419
 30
0.0
 11
160.634591
 21
110.281786
 31
0.0
  0
LINE
  5
2EA
330
2DB
100
AcDbEntity
  8
0
  6
CONTINUOUS
 62
     3
100
AcDbLine
 10
160.634591
 20
110.281786
 30
0.0
 11
160.645156
 21
110.32018
 31
0.0
  0
LINE
  5
2EB
330
2DB
100
AcDbEntity
  8
0
  6
CONTINUOUS
 62
     3
100
AcDbLine
 10
160.645156
 20
110.32018
 30
0.0
 11
160.65542
 21
110.358604
 31
0.0
  0
LINE
  5
2EC
330
2DB
100
AcDbEntity
  8
0
  6
CONTINUOUS
 62
     3
100
AcDbLine
 10
160.65542
 20
110.358604
 30
0.0
 11
160.665361
 21
110.397061
 31
0.0
  0
LINE
  5
2ED
330
2DB
100
AcDbEntity
  8
0
  6
CONTINUOUS
 62
     3
100
AcDbLine
 10
160.665361
 20
110.397061
 30
0.0
 11
160.674956
 21
110.435552
 31
0.0
  0
LINE
  5
2EE
330
2DB
100
AcDbEntity
  8
0
  6
CONTINUOUS
 62
     3
100
AcDbLine
 10
160.674956
 20
110.435552
 30
0.0
 11
160.684181
 21
110.47408
 31
0.0
  0
LINE
  5
2EF
330
2DB
100
AcDbEntity
  8
0
  6
CONTINUOUS
 62
     3
100
AcDbLine
 10
160.684181
 20
110.47408
 30
0.0
 11
160.693013
 21
110.512648
 31
0.0
  0
LINE
  5
2F0
330
2DB
100
AcDbEntity
  8
0
  6
CONTINUOUS
 62
     3
100
AcDbLine
 10
160.693013
 20
110.512648
 30
0.0
 11
160.70143
 21
110.551257
 31
0.0
  0
LINE
  5
2F1
330
2DB
100
AcDbEntity
  8
0
  6
CONTINUOUS
 62
     3
100
AcDbLine
 10
160.70143
 20
110.551257
 30
0.0
 11
160.709408
 21
110.58991
 31
0.0
  0
LINE
  5
2F2
330
2DB
100
AcDbEntity
  8
0
  6
CONTINUOUS
 62
     3
100
AcDbLine
 10
160.709408
 20
110.58991
 30
0.0
 11
160.713225
 21
110.609253
 31
0.0
  0
LINE
  5
2F3
330
2DB
100
AcDbEntity
  8
0
  6
CONTINUOUS
 62
     3
100
AcDbLine
 10
160.713225
 20
110.609253
 30
0.0
 11
160.716923
 21
110.628609
 31
0.0
  0
LINE
  5
2F4
330
2DB
100
AcDbEntity
  8
0
  6
CONTINUOUS
 62
     3
100
AcDbLine
 10
160.716923
 20
110.628609
 30
0.0
 11
160.720501
 21
110.647976
 31
0.0
  0
LINE
  5
2F5
330
2DB
100
AcDbEntity
  8
0
  6
CONTINUOUS
 62
     3
100
AcDbLine
 10
160.720501
 20
110.647976
 30
0.0
 11
160.723954
 21
110.667356
 31
0.0
  0
LINE
  5
2F6
330
2DB
100
AcDbEntity
  8
0
  6
CONTINUOUS
 62
     3
100
AcDbLine
 10
160.723954
 20
110.667356
 30
0.0
 11
160.72728
 21
110.686749
 31
0.0
  0
LINE
  5
2F7
330
2DB
100
AcDbEntity
  8
0
  6
CONTINUOUS
 62
     3
100
AcDbLine
 10
160.72728
 20
110.686749
 30
0.0
 11
160.730477
 21
110.706154
 31
0.0
  0
LINE
  5
2F8
330
2DB
100
AcDbEntity
  8
0
  6
CONTINUOUS
 62
     3
100
AcDbLine
 10
160.730477
 20
110.706154
 30
0.0
 11
160.73354
 21
110.725573
 31
0.0
  0
LINE
  5
2F9
330
2DB
100
AcDbEntity
  8
0
  6
CONTINUOUS
 62
     3
100
AcDbLine
 10
160.73354
 20
110.725573
 30
0.0
 11
160.736468
 21
110.745005
 31
0.0
  0
LINE
  5
2FA
330
2DB
100
AcDbEntity
  8
0
  6
CONTINUOUS
 62
     3
100
AcDbLine
 10
160.736468
 20
110.745005
 30
0.0
 11
160.739257
 21
110.764452
 31
0.0
  0
LINE
  5
2FB
330
2DB
100
AcDbEntity
  8
0
  6
CONTINUOUS
 62
     3
100
AcDbLine
 10
160.739257
 20
110.764452
 30
0.0
 11
160.741905
 21
110.783912
 31
0.0
  0
LINE
  5
2FC
330
2DB
100
AcDbEntity
  8
0
  6
CONTINUOUS
 62
     3
100
AcDbLine
 10
160.741905
 20
110.783912
 30
0.0
 11
160.744408
 21
110.803387
 31
0.0
  0
LINE
  5
2FD
330
2DB
100
AcDbEntity
  8
0
  6
CONTINUOUS
 62
     3
100
AcDbLine
 10
160.744408
 20
110.803387
 30
0.0
 11
160.746765
 21
110.822876
 31
0.0
  0
LINE
  5
2FE
330
2DB
100
AcDbEntity
  8
0
  6
CONTINUOUS
 62
     3
100
AcDbLine
 10
160.746765
 20
110.822876
 30
0.0
 11
160.74897
 21
110.842381
 31
0.0
  0
LINE
  5
2FF
330
2DB
100
AcDbEntity
  8
0
  6
CONTINUOUS
 62
     3
100
AcDbLine
 10
160.74897
 20
110.842381
 30
0.0
 11
160.751023
 21
110.861901
 31
0.0
  0
LINE
  5
300
330
2DB
100
AcDbEntity
  8
0
  6
CONTINUOUS
 62
     3
100
AcDbLine
 10
160.751023
 20
110.861901
 30
0.0
 11
160.752921
 21
110.881436
 31
0.0
  0
LINE
  5
301
330
2DB
100
AcDbEntity
  8
0
  6
CONTINUOUS
 62
     3
100
AcDbLine
 10
160.752921
 20
110.881436
 30
0.0
 11
160.754659
 21
110.900987
 31
0.0
  0
LINE
  5
302
330
2DB
100
AcDbEntity
  8
0
  6
CONTINUOUS
 62
     3
100
AcDbLine
 10
160.754659
 20
110.900987
 30
0.0
 11
160.756235
 21
110.920555
 31
0.0
  0
LINE
  5
303
330
2DB
100
AcDbEntity
  8
0
  6
CONTINUOUS
 62
     3
100
AcDbLine
 10
160.756235
 20
110.920555
 30
0.0
 11
160.757647
 21
110.940139
 31
0.0
  0
LINE
  5
304
330
2DB
100
AcDbEntity
  8
0
  6
CONTINUOUS
 62
     3
100
AcDbLine
 10
160.757647
 20
110.940139
 30
0.0
 11
160.758892
 21
110.959739
 31
0.0
  0
LINE
  5
305
330
2DB
100
AcDbEntity
  8
0
  6
CONTINUOUS
 62
     3
100
AcDbLine
 10
160.758892
 20
110.959739
 30
0.0
 11
160.759966
 21
110.979357
 31
0.0
  0
LINE
  5
306
330
2DB
100
AcDbEntity
  8
0
  6
CONTINUOUS
 62
     3
100
AcDbLine
 10
160.759966
 20
110.979357
 30
0.0
 11
160.760867
 21
110.998992
 31
0.0
  0
LINE
  5
307
330
2DB
100
AcDbEntity
  8
0
  6
CONTINUOUS
 62
     3
100
AcDbLine
 10
160.760867
 20
110.998992
 30
0.0
 11
160.761592
 21
111.018644
 31
0.0
  0
LINE
  5
308
330
2DB
100
AcDbEntity
  8
0
  6
CONTINUOUS
 62
     3
100
AcDbLine
 10
160.761592
 20
111.018644
 30
0.0
 11
160.762138
 21
111.038315
 31
0.0
  0
LINE
  5
309
330
2DB
100
AcDbEntity
  8
0
  6
CONTINUOUS
 62
     3
100
AcDbLine
 10
160.762138
 20
111.038315
 30
0.0
 11
160.762502
 21
111.058003
 31
0.0
  0
LINE
  5
30A
330
2DB
100
AcDbEntity
  8
0
  6
CONTINUOUS
 62
     3
100
AcDbLine
 10
160.762502
 20
111.058003
 30
0.0
 11
160.762801
 21
111.099638
 31
0.0
  0
ENDBLK
  5
2DD
330
2DB
100
AcDbEntity
  8
0
100
AcDbBlockEnd
  0
BLOCK
  5
30D
330
30C
100
AcDbEntity
  8
0
100
AcDbBlockBegin
  2
BLKF028
 70
     0
 71
     0
 10
0.0
 20
0.0
 30
0.0
  3
BLKF028
  1

  0
LINE
  5
310
330
30C
100
AcDbEntity
  8
0
  6
CONTINUOUS
 62
     3
100
AcDbLine
 10
157.630801
 20
109.822553
 30
0.0
 11
157.617983
 21
109.85553
 31
0.0
  0
LINE
  5
311
330
30C
100
AcDbEntity
  8
0
  6
CONTINUOUS
 62
     3
100
AcDbLine
 10
157.617983
 20
109.85553
 30
0.0
 11
157.60522
 21
109.888522
 31
0.0
  0
LINE
  5
312
330
30C
100
AcDbEntity
  8
0
  6
CONTINUOUS
 62
     3
100
AcDbLine
 10
157.60522
 20
109.888522
 30
0.0
 11
157.592565
 21
109.921549
 31
0.0
  0
LINE
  5
313
330
30C
100
AcDbEntity
  8
0
  6
CONTINUOUS
 62
     3
100
AcDbLine
 10
157.592565
 20
109.921549
 30
0.0
 11
157.580072
 21
109.954626
 31
0.0
  0
LINE
  5
314
330
30C
100
AcDbEntity
  8
0
  6
CONTINUOUS
 62
     3
100
AcDbLine
 10
157.580072
 20
109.954626
 30
0.0
 11
157.567794
 21
109.98777
 31
0.0
  0
LINE
  5
315
330
30C
100
AcDbEntity
  8
0
  6
CONTINUOUS
 62
     3
100
AcDbLine
 10
157.567794
 20
109.98777
 30
0.0
 11
157.555787
 21
110.020999
 31
0.0
  0
LINE
  5
316
330
30C
100
AcDbEntity
  8
0
  6
CONTINUOUS
 62
     3
100
AcDbLine
 10
157.555787
 20
110.020999
 30
0.0
 11
157.544103
 21
110.054328
 31
0.0
  0
LINE
  5
317
330
30C
100
AcDbEntity
  8
0
  6
CONTINUOUS
 62
     3
100
AcDbLine
 10
157.544103
 20
110.054328
 30
0.0
 11
157.5384
 21
110.071036
 31
0.0
  0
LINE
  5
318
330
30C
100
AcDbEntity
  8
0
  6
CONTINUOUS
 62
     3
100
AcDbLine
 10
157.5384
 20
110.071036
 30
0.0
 11
157.532798
 21
110.087775
 31
0.0
  0
LINE
  5
319
330
30C
100
AcDbEntity
  8
0
  6
CONTINUOUS
 62
     3
100
AcDbLine
 10
157.532798
 20
110.087775
 30
0.0
 11
157.522801
 21
110.118358
 31
0.0
  0
ENDBLK
  5
30E
330
30C
100
AcDbEntity
  8
0
100
AcDbBlockEnd
  0
BLOCK
  5
31B
330
31A
100
AcDbEntity
  8
0
100
AcDbBlockBegin
  2
BLKF029
 70
     0
 71
     0
 10
0.0
 20
0.0
 30
0.0
  3
BLKF029
  1

  0
LINE
  5
31E
330
31A
100
AcDbEntity
  8
0
  6
CONTINUOUS
 62
     3
100
AcDbLine
 10
157.522801
 20
112.080917
 30
0.0
 11
157.545192
 21
112.146158
 31
0.0
  0
LINE
  5
31F
330
31A
100
AcDbEntity
  8
0
  6
CONTINUOUS
 62
     3
100
AcDbLine
 10
157.545192
 20
112.146158
 30
0.0
 11
157.55651
 21
112.178737
 31
0.0
  0
LINE
  5
320
330
31A
100
AcDbEntity
  8
0
  6
CONTINUOUS
 62
     3
100
AcDbLine
 10
157.55651
 20
112.178737
 30
0.0
 11
157.567975
 21
112.211266
 31
0.0
  0
LINE
  5
321
330
31A
100
AcDbEntity
  8
0
  6
CONTINUOUS
 62
     3
100
AcDbLine
 10
157.567975
 20
112.211266
 30
0.0
 11
157.579634
 21
112.243728
 31
0.0
  0
LINE
  5
322
330
31A
100
AcDbEntity
  8
0
  6
CONTINUOUS
 62
     3
100
AcDbLine
 10
157.579634
 20
112.243728
 30
0.0
 11
157.591538
 21
112.276107
 31
0.0
  0
LINE
  5
323
330
31A
100
AcDbEntity
  8
0
  6
CONTINUOUS
 62
     3
100
AcDbLine
 10
157.591538
 20
112.276107
 30
0.0
 11
157.603734
 21
112.308387
 31
0.0
  0
LINE
  5
324
330
31A
100
AcDbEntity
  8
0
  6
CONTINUOUS
 62
     3
100
AcDbLine
 10
157.603734
 20
112.308387
 30
0.0
 11
157.616272
 21
112.34055
 31
0.0
  0
LINE
  5
325
330
31A
100
AcDbEntity
  8
0
  6
CONTINUOUS
 62
     3
100
AcDbLine
 10
157.616272
 20
112.34055
 30
0.0
 11
157.630801
 21
112.376722
 31
0.0
  0
ENDBLK
  5
31C
330
31A
100
AcDbEntity
  8
0
100
AcDbBlockEnd
  0
BLOCK
  5
329
330
328
100
AcDbEntity
  8
0
100
AcDbBlockBegin
  2
BLKF030
 70
     0
 71
     0
 10
0.0
 20
0.0
 30
0.0
  3
BLKF030
  1

  0
LINE
  5
32C
330
328
100
AcDbEntity
  8
0
  6
CONTINUOUS
 62
     3
100
AcDbLine
 10
160.492801
 20
108.937639
 30
0.0
 11
160.510492
 21
108.902045
 31
0.0
  0
LINE
  5
32D
330
328
100
AcDbEntity
  8
0
  6
CONTINUOUS
 62
     3
100
AcDbLine
 10
160.510492
 20
108.902045
 30
0.0
 11
160.52795
 21
108.866404
 31
0.0
  0
LINE
  5
32E
330
328
100
AcDbEntity
  8
0
  6
CONTINUOUS
 62
     3
100
AcDbLine
 10
160.52795
 20
108.866404
 30
0.0
 11
160.544944
 21
108.83067
 31
0.0
  0
LINE
  5
32F
330
328
100
AcDbEntity
  8
0
  6
CONTINUOUS
 62
     3
100
AcDbLine
 10
160.544944
 20
108.83067
 30
0.0
 11
160.561239
 21
108.794796
 31
0.0
  0
LINE
  5
330
330
328
100
AcDbEntity
  8
0
  6
CONTINUOUS
 62
     3
100
AcDbLine
 10
160.561239
 20
108.794796
 30
0.0
 11
160.57259
 21
108.768471
 31
0.0
  0
LINE
  5
331
330
328
100
AcDbEntity
  8
0
  6
CONTINUOUS
 62
     3
100
AcDbLine
 10
160.57259
 20
108.768471
 30
0.0
 11
160.58346
 21
108.742049
 31
0.0
  0
LINE
  5
332
330
328
100
AcDbEntity
  8
0
  6
CONTINUOUS
 62
     3
100
AcDbLine
 10
160.58346
 20
108.742049
 30
0.0
 11
160.593864
 21
108.715534
 31
0.0
  0
LINE
  5
333
330
328
100
AcDbEntity
  8
0
  6
CONTINUOUS
 62
     3
100
AcDbLine
 10
160.593864
 20
108.715534
 30
0.0
 11
160.603817
 21
108.68893
 31
0.0
  0
LINE
  5
334
330
328
100
AcDbEntity
  8
0
  6
CONTINUOUS
 62
     3
100
AcDbLine
 10
160.603817
 20
108.68893
 30
0.0
 11
160.613337
 21
108.662238
 31
0.0
  0
LINE
  5
335
330
328
100
AcDbEntity
  8
0
  6
CONTINUOUS
 62
     3
100
AcDbLine
 10
160.613337
 20
108.662238
 30
0.0
 11
160.622437
 21
108.635463
 31
0.0
  0
LINE
  5
336
330
328
100
AcDbEntity
  8
0
  6
CONTINUOUS
 62
     3
100
AcDbLine
 10
160.622437
 20
108.635463
 30
0.0
 11
160.631134
 21
108.608607
 31
0.0
  0
LINE
  5
337
330
328
100
AcDbEntity
  8
0
  6
CONTINUOUS
 62
     3
100
AcDbLine
 10
160.631134
 20
108.608607
 30
0.0
 11
160.639442
 21
108.581673
 31
0.0
  0
LINE
  5
338
330
328
100
AcDbEntity
  8
0
  6
CONTINUOUS
 62
     3
100
AcDbLine
 10
160.639442
 20
108.581673
 30
0.0
 11
160.647378
 21
108.554665
 31
0.0
  0
LINE
  5
339
330
328
100
AcDbEntity
  8
0
  6
CONTINUOUS
 62
     3
100
AcDbLine
 10
160.647378
 20
108.554665
 30
0.0
 11
160.654958
 21
108.527586
 31
0.0
  0
LINE
  5
33A
330
328
100
AcDbEntity
  8
0
  6
CONTINUOUS
 62
     3
100
AcDbLine
 10
160.654958
 20
108.527586
 30
0.0
 11
160.662196
 21
108.500438
 31
0.0
  0
LINE
  5
33B
330
328
100
AcDbEntity
  8
0
  6
CONTINUOUS
 62
     3
100
AcDbLine
 10
160.662196
 20
108.500438
 30
0.0
 11
160.669107
 21
108.473225
 31
0.0
  0
LINE
  5
33C
330
328
100
AcDbEntity
  8
0
  6
CONTINUOUS
 62
     3
100
AcDbLine
 10
160.669107
 20
108.473225
 30
0.0
 11
160.682015
 21
108.418616
 31
0.0
  0
LINE
  5
33D
330
328
100
AcDbEntity
  8
0
  6
CONTINUOUS
 62
     3
100
AcDbLine
 10
160.682015
 20
108.418616
 30
0.0
 11
160.693806
 21
108.363784
 31
0.0
  0
LINE
  5
33E
330
328
100
AcDbEntity
  8
0
  6
CONTINUOUS
 62
     3
100
AcDbLine
 10
160.693806
 20
108.363784
 30
0.0
 11
160.704603
 21
108.308753
 31
0.0
  0
LINE
  5
33F
330
328
100
AcDbEntity
  8
0
  6
CONTINUOUS
 62
     3
100
AcDbLine
 10
160.704603
 20
108.308753
 30
0.0
 11
160.714531
 21
108.253549
 31
0.0
  0
LINE
  5
340
330
328
100
AcDbEntity
  8
0
  6
CONTINUOUS
 62
     3
100
AcDbLine
 10
160.714531
 20
108.253549
 30
0.0
 11
160.723715
 21
108.198196
 31
0.0
  0
LINE
  5
341
330
328
100
AcDbEntity
  8
0
  6
CONTINUOUS
 62
     3
100
AcDbLine
 10
160.723715
 20
108.198196
 30
0.0
 11
160.732277
 21
108.142718
 31
0.0
  0
LINE
  5
342
330
328
100
AcDbEntity
  8
0
  6
CONTINUOUS
 62
     3
100
AcDbLine
 10
160.732277
 20
108.142718
 30
0.0
 11
160.740343
 21
108.087141
 31
0.0
  0
LINE
  5
343
330
328
100
AcDbEntity
  8
0
  6
CONTINUOUS
 62
     3
100
AcDbLine
 10
160.740343
 20
108.087141
 30
0.0
 11
160.748036
 21
108.03149
 31
0.0
  0
LINE
  5
344
330
328
100
AcDbEntity
  8
0
  6
CONTINUOUS
 62
     3
100
AcDbLine
 10
160.748036
 20
108.03149
 30
0.0
 11
160.762801
 21
107.920063
 31
0.0
  0
ENDBLK
  5
32A
330
328
100
AcDbEntity
  8
0
100
AcDbBlockEnd
  0
BLOCK
  5
349
330
348
100
AcDbEntity
  8
0
100
AcDbBlockBegin
  2
BLKF031
 70
     0
 71
     0
 10
0.0
 20
0.0
 30
0.0
  3
BLKF031
  1

  0
LINE
  5
34C
330
348
100
AcDbEntity
  8
0
  6
CONTINUOUS
 62
     3
100
AcDbLine
 10
157.522801
 20
108.701943
 30
0.0
 11
157.545193
 21
108.753926
 31
0.0
  0
LINE
  5
34D
330
348
100
AcDbEntity
  8
0
  6
CONTINUOUS
 62
     3
100
AcDbLine
 10
157.545193
 20
108.753926
 30
0.0
 11
157.55651
 21
108.779885
 31
0.0
  0
LINE
  5
34E
330
348
100
AcDbEntity
  8
0
  6
CONTINUOUS
 62
     3
100
AcDbLine
 10
157.55651
 20
108.779885
 30
0.0
 11
157.567975
 21
108.805804
 31
0.0
  0
LINE
  5
34F
330
348
100
AcDbEntity
  8
0
  6
CONTINUOUS
 62
     3
100
AcDbLine
 10
157.567975
 20
108.805804
 30
0.0
 11
157.579634
 21
108.83167
 31
0.0
  0
LINE
  5
350
330
348
100
AcDbEntity
  8
0
  6
CONTINUOUS
 62
     3
100
AcDbLine
 10
157.579634
 20
108.83167
 30
0.0
 11
157.591538
 21
108.857469
 31
0.0
  0
LINE
  5
351
330
348
100
AcDbEntity
  8
0
  6
CONTINUOUS
 62
     3
100
AcDbLine
 10
157.591538
 20
108.857469
 30
0.0
 11
157.603734
 21
108.88319
 31
0.0
  0
LINE
  5
352
330
348
100
AcDbEntity
  8
0
  6
CONTINUOUS
 62
     3
100
AcDbLine
 10
157.603734
 20
108.88319
 30
0.0
 11
157.616272
 21
108.908817
 31
0.0
  0
LINE
  5
353
330
348
100
AcDbEntity
  8
0
  6
CONTINUOUS
 62
     3
100
AcDbLine
 10
157.616272
 20
108.908817
 30
0.0
 11
157.630801
 21
108.937639
 31
0.0
  0
ENDBLK
  5
34A
330
348
100
AcDbEntity
  8
0
100
AcDbBlockEnd
  0
BLOCK
  5
358
330
357
100
AcDbEntity
  8
0
100
AcDbBlockBegin
  2
BLKF032
 70
     0
 71
     0
 10
0.0
 20
0.0
 30
0.0
  3
BLKF032
  1

  0
LINE
  5
35B
330
357
100
AcDbEntity
  8
0
  6
CONTINUOUS
 62
     3
100
AcDbLine
 10
160.762801
 20
113.228803
 30
0.0
 11
160.762761
 21
113.225744
 31
0.0
  0
LINE
  5
35C
330
357
100
AcDbEntity
  8
0
  6
CONTINUOUS
 62
     3
100
AcDbLine
 10
160.762761
 20
113.225744
 30
0.0
 11
160.762657
 21
113.222731
 31
0.0
  0
LINE
  5
35D
330
357
100
AcDbEntity
  8
0
  6
CONTINUOUS
 62
     3
100
AcDbLine
 10
160.762657
 20
113.222731
 30
0.0
 11
160.762476
 21
113.219718
 31
0.0
  0
LINE
  5
35E
330
357
100
AcDbEntity
  8
0
  6
CONTINUOUS
 62
     3
100
AcDbLine
 10
160.762476
 20
113.219718
 30
0.0
 11
160.762219
 21
113.216704
 31
0.0
  0
LINE
  5
35F
330
357
100
AcDbEntity
  8
0
  6
CONTINUOUS
 62
     3
100
AcDbLine
 10
160.762219
 20
113.216704
 30
0.0
 11
160.761885
 21
113.21369
 31
0.0
  0
LINE
  5
360
330
357
100
AcDbEntity
  8
0
  6
CONTINUOUS
 62
     3
100
AcDbLine
 10
160.761885
 20
113.21369
 30
0.0
 11
160.761475
 21
113.210675
 31
0.0
  0
LINE
  5
361
330
357
100
AcDbEntity
  8
0
  6
CONTINUOUS
 62
     3
100
AcDbLine
 10
160.761475
 20
113.210675
 30
0.0
 11
160.760989
 21
113.20766
 31
0.0
  0
LINE
  5
362
330
357
100
AcDbEntity
  8
0
  6
CONTINUOUS
 62
     3
100
AcDbLine
 10
160.760989
 20
113.20766
 30
0.0
 11
160.760427
 21
113.204645
 31
0.0
  0
LINE
  5
363
330
357
100
AcDbEntity
  8
0
  6
CONTINUOUS
 62
     3
100
AcDbLine
 10
160.760427
 20
113.204645
 30
0.0
 11
160.75979
 21
113.20163
 31
0.0
  0
LINE
  5
364
330
357
100
AcDbEntity
  8
0
  6
CONTINUOUS
 62
     3
100
AcDbLine
 10
160.75979
 20
113.20163
 30
0.0
 11
160.759077
 21
113.198615
 31
0.0
  0
LINE
  5
365
330
357
100
AcDbEntity
  8
0
  6
CONTINUOUS
 62
     3
100
AcDbLine
 10
160.759077
 20
113.198615
 30
0.0
 11
160.75829
 21
113.1956
 31
0.0
  0
LINE
  5
366
330
357
100
AcDbEntity
  8
0
  6
CONTINUOUS
 62
     3
100
AcDbLine
 10
160.75829
 20
113.1956
 30
0.0
 11
160.757427
 21
113.192585
 31
0.0
  0
LINE
  5
367
330
357
100
AcDbEntity
  8
0
  6
CONTINUOUS
 62
     3
100
AcDbLine
 10
160.757427
 20
113.192585
 30
0.0
 11
160.75649
 21
113.189571
 31
0.0
  0
LINE
  5
368
330
357
100
AcDbEntity
  8
0
  6
CONTINUOUS
 62
     3
100
AcDbLine
 10
160.75649
 20
113.189571
 30
0.0
 11
160.755478
 21
113.186557
 31
0.0
  0
LINE
  5
369
330
357
100
AcDbEntity
  8
0
  6
CONTINUOUS
 62
     3
100
AcDbLine
 10
160.755478
 20
113.186557
 30
0.0
 11
160.754392
 21
113.183543
 31
0.0
  0
LINE
  5
36A
330
357
100
AcDbEntity
  8
0
  6
CONTINUOUS
 62
     3
100
AcDbLine
 10
160.754392
 20
113.183543
 30
0.0
 11
160.753232
 21
113.18053
 31
0.0
  0
LINE
  5
36B
330
357
100
AcDbEntity
  8
0
  6
CONTINUOUS
 62
     3
100
AcDbLine
 10
160.753232
 20
113.18053
 30
0.0
 11
160.751998
 21
113.177517
 31
0.0
  0
LINE
  5
36C
330
357
100
AcDbEntity
  8
0
  6
CONTINUOUS
 62
     3
100
AcDbLine
 10
160.751998
 20
113.177517
 30
0.0
 11
160.75069
 21
113.174505
 31
0.0
  0
LINE
  5
36D
330
357
100
AcDbEntity
  8
0
  6
CONTINUOUS
 62
     3
100
AcDbLine
 10
160.75069
 20
113.174505
 30
0.0
 11
160.749308
 21
113.171494
 31
0.0
  0
LINE
  5
36E
330
357
100
AcDbEntity
  8
0
  6
CONTINUOUS
 62
     3
100
AcDbLine
 10
160.749308
 20
113.171494
 30
0.0
 11
160.747854
 21
113.168484
 31
0.0
  0
LINE
  5
36F
330
357
100
AcDbEntity
  8
0
  6
CONTINUOUS
 62
     3
100
AcDbLine
 10
160.747854
 20
113.168484
 30
0.0
 11
160.746326
 21
113.165474
 31
0.0
  0
LINE
  5
370
330
357
100
AcDbEntity
  8
0
  6
CONTINUOUS
 62
     3
100
AcDbLine
 10
160.746326
 20
113.165474
 30
0.0
 11
160.744726
 21
113.162466
 31
0.0
  0
LINE
  5
371
330
357
100
AcDbEntity
  8
0
  6
CONTINUOUS
 62
     3
100
AcDbLine
 10
160.744726
 20
113.162466
 30
0.0
 11
160.743052
 21
113.159458
 31
0.0
  0
LINE
  5
372
330
357
100
AcDbEntity
  8
0
  6
CONTINUOUS
 62
     3
100
AcDbLine
 10
160.743052
 20
113.159458
 30
0.0
 11
160.741307
 21
113.156452
 31
0.0
  0
LINE
  5
373
330
357
100
AcDbEntity
  8
0
  6
CONTINUOUS
 62
     3
100
AcDbLine
 10
160.741307
 20
113.156452
 30
0.0
 11
160.739489
 21
113.153447
 31
0.0
  0
LINE
  5
374
330
357
100
AcDbEntity
  8
0
  6
CONTINUOUS
 62
     3
100
AcDbLine
 10
160.739489
 20
113.153447
 30
0.0
 11
160.737599
 21
113.150443
 31
0.0
  0
LINE
  5
375
330
357
100
AcDbEntity
  8
0
  6
CONTINUOUS
 62
     3
100
AcDbLine
 10
160.737599
 20
113.150443
 30
0.0
 11
160.735637
 21
113.147441
 31
0.0
  0
LINE
  5
376
330
357
100
AcDbEntity
  8
0
  6
CONTINUOUS
 62
     3
100
AcDbLine
 10
160.735637
 20
113.147441
 30
0.0
 11
160.733604
 21
113.14444
 31
0.0
  0
LINE
  5
377
330
357
100
AcDbEntity
  8
0
  6
CONTINUOUS
 62
     3
100
AcDbLine
 10
160.733604
 20
113.14444
 30
0.0
 11
160.731499
 21
113.141441
 31
0.0
  0
LINE
  5
378
330
357
100
AcDbEntity
  8
0
  6
CONTINUOUS
 62
     3
100
AcDbLine
 10
160.731499
 20
113.141441
 30
0.0
 11
160.729322
 21
113.138443
 31
0.0
  0
LINE
  5
379
330
357
100
AcDbEntity
  8
0
  6
CONTINUOUS
 62
     3
100
AcDbLine
 10
160.729322
 20
113.138443
 30
0.0
 11
160.727075
 21
113.135447
 31
0.0
  0
LINE
  5
37A
330
357
100
AcDbEntity
  8
0
  6
CONTINUOUS
 62
     3
100
AcDbLine
 10
160.727075
 20
113.135447
 30
0.0
 11
160.724757
 21
113.132453
 31
0.0
  0
LINE
  5
37B
330
357
100
AcDbEntity
  8
0
  6
CONTINUOUS
 62
     3
100
AcDbLine
 10
160.724757
 20
113.132453
 30
0.0
 11
160.722369
 21
113.129461
 31
0.0
  0
LINE
  5
37C
330
357
100
AcDbEntity
  8
0
  6
CONTINUOUS
 62
     3
100
AcDbLine
 10
160.722369
 20
113.129461
 30
0.0
 11
160.71991
 21
113.126471
 31
0.0
  0
LINE
  5
37D
330
357
100
AcDbEntity
  8
0
  6
CONTINUOUS
 62
     3
100
AcDbLine
 10
160.71991
 20
113.126471
 30
0.0
 11
160.71738
 21
113.123483
 31
0.0
  0
LINE
  5
37E
330
357
100
AcDbEntity
  8
0
  6
CONTINUOUS
 62
     3
100
AcDbLine
 10
160.71738
 20
113.123483
 30
0.0
 11
160.714781
 21
113.120497
 31
0.0
  0
LINE
  5
37F
330
357
100
AcDbEntity
  8
0
  6
CONTINUOUS
 62
     3
100
AcDbLine
 10
160.714781
 20
113.120497
 30
0.0
 11
160.712112
 21
113.117513
 31
0.0
  0
LINE
  5
380
330
357
100
AcDbEntity
  8
0
  6
CONTINUOUS
 62
     3
100
AcDbLine
 10
160.712112
 20
113.117513
 30
0.0
 11
160.709373
 21
113.114531
 31
0.0
  0
LINE
  5
381
330
357
100
AcDbEntity
  8
0
  6
CONTINUOUS
 62
     3
100
AcDbLine
 10
160.709373
 20
113.114531
 30
0.0
 11
160.706565
 21
113.111552
 31
0.0
  0
LINE
  5
382
330
357
100
AcDbEntity
  8
0
  6
CONTINUOUS
 62
     3
100
AcDbLine
 10
160.706565
 20
113.111552
 30
0.0
 11
160.703688
 21
113.108576
 31
0.0
  0
LINE
  5
383
330
357
100
AcDbEntity
  8
0
  6
CONTINUOUS
 62
     3
100
AcDbLine
 10
160.703688
 20
113.108576
 30
0.0
 11
160.700742
 21
113.105601
 31
0.0
  0
LINE
  5
384
330
357
100
AcDbEntity
  8
0
  6
CONTINUOUS
 62
     3
100
AcDbLine
 10
160.700742
 20
113.105601
 30
0.0
 11
160.697727
 21
113.10263
 31
0.0
  0
LINE
  5
385
330
357
100
AcDbEntity
  8
0
  6
CONTINUOUS
 62
     3
100
AcDbLine
 10
160.697727
 20
113.10263
 30
0.0
 11
160.694644
 21
113.099661
 31
0.0
  0
LINE
  5
386
330
357
100
AcDbEntity
  8
0
  6
CONTINUOUS
 62
     3
100
AcDbLine
 10
160.694644
 20
113.099661
 30
0.0
 11
160.691492
 21
113.096695
 31
0.0
  0
LINE
  5
387
330
357
100
AcDbEntity
  8
0
  6
CONTINUOUS
 62
     3
100
AcDbLine
 10
160.691492
 20
113.096695
 30
0.0
 11
160.688272
 21
113.093732
 31
0.0
  0
LINE
  5
388
330
357
100
AcDbEntity
  8
0
  6
CONTINUOUS
 62
     3
100
AcDbLine
 10
160.688272
 20
113.093732
 30
0.0
 11
160.684984
 21
113.090772
 31
0.0
  0
LINE
  5
389
330
357
100
AcDbEntity
  8
0
  6
CONTINUOUS
 62
     3
100
AcDbLine
 10
160.684984
 20
113.090772
 30
0.0
 11
160.681628
 21
113.087815
 31
0.0
  0
LINE
  5
38A
330
357
100
AcDbEntity
  8
0
  6
CONTINUOUS
 62
     3
100
AcDbLine
 10
160.681628
 20
113.087815
 30
0.0
 11
160.678205
 21
113.084861
 31
0.0
  0
LINE
  5
38B
330
357
100
AcDbEntity
  8
0
  6
CONTINUOUS
 62
     3
100
AcDbLine
 10
160.678205
 20
113.084861
 30
0.0
 11
160.674714
 21
113.08191
 31
0.0
  0
LINE
  5
38C
330
357
100
AcDbEntity
  8
0
  6
CONTINUOUS
 62
     3
100
AcDbLine
 10
160.674714
 20
113.08191
 30
0.0
 11
160.671156
 21
113.078963
 31
0.0
  0
LINE
  5
38D
330
357
100
AcDbEntity
  8
0
  6
CONTINUOUS
 62
     3
100
AcDbLine
 10
160.671156
 20
113.078963
 30
0.0
 11
160.667532
 21
113.076019
 31
0.0
  0
LINE
  5
38E
330
357
100
AcDbEntity
  8
0
  6
CONTINUOUS
 62
     3
100
AcDbLine
 10
160.667532
 20
113.076019
 30
0.0
 11
160.66384
 21
113.073078
 31
0.0
  0
LINE
  5
38F
330
357
100
AcDbEntity
  8
0
  6
CONTINUOUS
 62
     3
100
AcDbLine
 10
160.66384
 20
113.073078
 30
0.0
 11
160.660082
 21
113.070141
 31
0.0
  0
LINE
  5
390
330
357
100
AcDbEntity
  8
0
  6
CONTINUOUS
 62
     3
100
AcDbLine
 10
160.660082
 20
113.070141
 30
0.0
 11
160.656258
 21
113.067207
 31
0.0
  0
LINE
  5
391
330
357
100
AcDbEntity
  8
0
  6
CONTINUOUS
 62
     3
100
AcDbLine
 10
160.656258
 20
113.067207
 30
0.0
 11
160.652368
 21
113.064277
 31
0.0
  0
LINE
  5
392
330
357
100
AcDbEntity
  8
0
  6
CONTINUOUS
 62
     3
100
AcDbLine
 10
160.652368
 20
113.064277
 30
0.0
 11
160.648411
 21
113.061351
 31
0.0
  0
LINE
  5
393
330
357
100
AcDbEntity
  8
0
  6
CONTINUOUS
 62
     3
100
AcDbLine
 10
160.648411
 20
113.061351
 30
0.0
 11
160.644389
 21
113.058429
 31
0.0
  0
LINE
  5
394
330
357
100
AcDbEntity
  8
0
  6
CONTINUOUS
 62
     3
100
AcDbLine
 10
160.644389
 20
113.058429
 30
0.0
 11
160.640302
 21
113.055511
 31
0.0
  0
LINE
  5
395
330
357
100
AcDbEntity
  8
0
  6
CONTINUOUS
 62
     3
100
AcDbLine
 10
160.640302
 20
113.055511
 30
0.0
 11
160.636149
 21
113.052596
 31
0.0
  0
LINE
  5
396
330
357
100
AcDbEntity
  8
0
  6
CONTINUOUS
 62
     3
100
AcDbLine
 10
160.636149
 20
113.052596
 30
0.0
 11
160.631931
 21
113.049686
 31
0.0
  0
LINE
  5
397
330
357
100
AcDbEntity
  8
0
  6
CONTINUOUS
 62
     3
100
AcDbLine
 10
160.631931
 20
113.049686
 30
0.0
 11
160.627649
 21
113.04678
 31
0.0
  0
LINE
  5
398
330
357
100
AcDbEntity
  8
0
  6
CONTINUOUS
 62
     3
100
AcDbLine
 10
160.627649
 20
113.04678
 30
0.0
 11
160.623301
 21
113.043878
 31
0.0
  0
LINE
  5
399
330
357
100
AcDbEntity
  8
0
  6
CONTINUOUS
 62
     3
100
AcDbLine
 10
160.623301
 20
113.043878
 30
0.0
 11
160.618889
 21
113.040981
 31
0.0
  0
LINE
  5
39A
330
357
100
AcDbEntity
  8
0
  6
CONTINUOUS
 62
     3
100
AcDbLine
 10
160.618889
 20
113.040981
 30
0.0
 11
160.614413
 21
113.038088
 31
0.0
  0
LINE
  5
39B
330
357
100
AcDbEntity
  8
0
  6
CONTINUOUS
 62
     3
100
AcDbLine
 10
160.614413
 20
113.038088
 30
0.0
 11
160.609873
 21
113.035199
 31
0.0
  0
LINE
  5
39C
330
357
100
AcDbEntity
  8
0
  6
CONTINUOUS
 62
     3
100
AcDbLine
 10
160.609873
 20
113.035199
 30
0.0
 11
160.603202
 21
113.031034
 31
0.0
  0
LINE
  5
39D
330
357
100
AcDbEntity
  8
0
  6
CONTINUOUS
 62
     3
100
AcDbLine
 10
160.603202
 20
113.031034
 30
0.0
 11
160.596405
 21
113.026878
 31
0.0
  0
LINE
  5
39E
330
357
100
AcDbEntity
  8
0
  6
CONTINUOUS
 62
     3
100
AcDbLine
 10
160.596405
 20
113.026878
 30
0.0
 11
160.589493
 21
113.022729
 31
0.0
  0
LINE
  5
39F
330
357
100
AcDbEntity
  8
0
  6
CONTINUOUS
 62
     3
100
AcDbLine
 10
160.589493
 20
113.022729
 30
0.0
 11
160.582471
 21
113.018589
 31
0.0
  0
LINE
  5
3A0
330
357
100
AcDbEntity
  8
0
  6
CONTINUOUS
 62
     3
100
AcDbLine
 10
160.582471
 20
113.018589
 30
0.0
 11
160.57535
 21
113.014456
 31
0.0
  0
LINE
  5
3A1
330
357
100
AcDbEntity
  8
0
  6
CONTINUOUS
 62
     3
100
AcDbLine
 10
160.57535
 20
113.014456
 30
0.0
 11
160.568137
 21
113.010329
 31
0.0
  0
LINE
  5
3A2
330
357
100
AcDbEntity
  8
0
  6
CONTINUOUS
 62
     3
100
AcDbLine
 10
160.568137
 20
113.010329
 30
0.0
 11
160.560841
 21
113.006209
 31
0.0
  0
LINE
  5
3A3
330
357
100
AcDbEntity
  8
0
  6
CONTINUOUS
 62
     3
100
AcDbLine
 10
160.560841
 20
113.006209
 30
0.0
 11
160.55347
 21
113.002094
 31
0.0
  0
LINE
  5
3A4
330
357
100
AcDbEntity
  8
0
  6
CONTINUOUS
 62
     3
100
AcDbLine
 10
160.55347
 20
113.002094
 30
0.0
 11
160.546032
 21
112.997983
 31
0.0
  0
LINE
  5
3A5
330
357
100
AcDbEntity
  8
0
  6
CONTINUOUS
 62
     3
100
AcDbLine
 10
160.546032
 20
112.997983
 30
0.0
 11
160.538536
 21
112.993877
 31
0.0
  0
LINE
  5
3A6
330
357
100
AcDbEntity
  8
0
  6
CONTINUOUS
 62
     3
100
AcDbLine
 10
160.538536
 20
112.993877
 30
0.0
 11
160.53099
 21
112.989775
 31
0.0
  0
LINE
  5
3A7
330
357
100
AcDbEntity
  8
0
  6
CONTINUOUS
 62
     3
100
AcDbLine
 10
160.53099
 20
112.989775
 30
0.0
 11
160.523402
 21
112.985675
 31
0.0
  0
LINE
  5
3A8
330
357
100
AcDbEntity
  8
0
  6
CONTINUOUS
 62
     3
100
AcDbLine
 10
160.523402
 20
112.985675
 30
0.0
 11
160.508135
 21
112.977482
 31
0.0
  0
LINE
  5
3A9
330
357
100
AcDbEntity
  8
0
  6
CONTINUOUS
 62
     3
100
AcDbLine
 10
160.508135
 20
112.977482
 30
0.0
 11
160.492801
 21
112.969295
 31
0.0
  0
ENDBLK
  5
359
330
357
100
AcDbEntity
  8
0
100
AcDbBlockEnd
  0
BLOCK
  5
3AC
330
3AB
100
AcDbEntity
  8
0
100
AcDbBlockBegin
  2
BLKF033
 70
     0
 71
     0
 10
0.0
 20
0.0
 30
0.0
  3
BLKF033
  1

  0
LINE
  5
3AF
330
3AB
100
AcDbEntity
  8
0
  6
CONTINUOUS
 62
     3
100
AcDbLine
 10
160.492801
 20
106.902487
 30
0.0
 11
160.51751
 21
106.963387
 31
0.0
  0
LINE
  5
3B0
330
3AB
100
AcDbEntity
  8
0
  6
CONTINUOUS
 62
     3
100
AcDbLine
 10
160.51751
 20
106.963387
 30
0.0
 11
160.529807
 21
106.993841
 31
0.0
  0
LINE
  5
3B1
330
3AB
100
AcDbEntity
  8
0
  6
CONTINUOUS
 62
     3
100
AcDbLine
 10
160.529807
 20
106.993841
 30
0.0
 11
160.542035
 21
107.024301
 31
0.0
  0
LINE
  5
3B2
330
3AB
100
AcDbEntity
  8
0
  6
CONTINUOUS
 62
     3
100
AcDbLine
 10
160.542035
 20
107.024301
 30
0.0
 11
160.554171
 21
107.054769
 31
0.0
  0
LINE
  5
3B3
330
3AB
100
AcDbEntity
  8
0
  6
CONTINUOUS
 62
     3
100
AcDbLine
 10
160.554171
 20
107.054769
 30
0.0
 11
160.566191
 21
107.085245
 31
0.0
  0
LINE
  5
3B4
330
3AB
100
AcDbEntity
  8
0
  6
CONTINUOUS
 62
     3
100
AcDbLine
 10
160.566191
 20
107.085245
 30
0.0
 11
160.578072
 21
107.115733
 31
0.0
  0
LINE
  5
3B5
330
3AB
100
AcDbEntity
  8
0
  6
CONTINUOUS
 62
     3
100
AcDbLine
 10
160.578072
 20
107.115733
 30
0.0
 11
160.589791
 21
107.146233
 31
0.0
  0
LINE
  5
3B6
330
3AB
100
AcDbEntity
  8
0
  6
CONTINUOUS
 62
     3
100
AcDbLine
 10
160.589791
 20
107.146233
 30
0.0
 11
160.601326
 21
107.176749
 31
0.0
  0
LINE
  5
3B7
330
3AB
100
AcDbEntity
  8
0
  6
CONTINUOUS
 62
     3
100
AcDbLine
 10
160.601326
 20
107.176749
 30
0.0
 11
160.612653
 21
107.20728
 31
0.0
  0
LINE
  5
3B8
330
3AB
100
AcDbEntity
  8
0
  6
CONTINUOUS
 62
     3
100
AcDbLine
 10
160.612653
 20
107.20728
 30
0.0
 11
160.623749
 21
107.23783
 31
0.0
  0
LINE
  5
3B9
330
3AB
100
AcDbEntity
  8
0
  6
CONTINUOUS
 62
     3
100
AcDbLine
 10
160.623749
 20
107.23783
 30
0.0
 11
160.634591
 21
107.268401
 31
0.0
  0
LINE
  5
3BA
330
3AB
100
AcDbEntity
  8
0
  6
CONTINUOUS
 62
     3
100
AcDbLine
 10
160.634591
 20
107.268401
 30
0.0
 11
160.645156
 21
107.298993
 31
0.0
  0
LINE
  5
3BB
330
3AB
100
AcDbEntity
  8
0
  6
CONTINUOUS
 62
     3
100
AcDbLine
 10
160.645156
 20
107.298993
 30
0.0
 11
160.65542
 21
107.32961
 31
0.0
  0
LINE
  5
3BC
330
3AB
100
AcDbEntity
  8
0
  6
CONTINUOUS
 62
     3
100
AcDbLine
 10
160.65542
 20
107.32961
 30
0.0
 11
160.665361
 21
107.360252
 31
0.0
  0
LINE
  5
3BD
330
3AB
100
AcDbEntity
  8
0
  6
CONTINUOUS
 62
     3
100
AcDbLine
 10
160.665361
 20
107.360252
 30
0.0
 11
160.674956
 21
107.390921
 31
0.0
  0
LINE
  5
3BE
330
3AB
100
AcDbEntity
  8
0
  6
CONTINUOUS
 62
     3
100
AcDbLine
 10
160.674956
 20
107.390921
 30
0.0
 11
160.684181
 21
107.421621
 31
0.0
  0
LINE
  5
3BF
330
3AB
100
AcDbEntity
  8
0
  6
CONTINUOUS
 62
     3
100
AcDbLine
 10
160.684181
 20
107.421621
 30
0.0
 11
160.693013
 21
107.452351
 31
0.0
  0
LINE
  5
3C0
330
3AB
100
AcDbEntity
  8
0
  6
CONTINUOUS
 62
     3
100
AcDbLine
 10
160.693013
 20
107.452351
 30
0.0
 11
160.70143
 21
107.483114
 31
0.0
  0
LINE
  5
3C1
330
3AB
100
AcDbEntity
  8
0
  6
CONTINUOUS
 62
     3
100
AcDbLine
 10
160.70143
 20
107.483114
 30
0.0
 11
160.709408
 21
107.513913
 31
0.0
  0
LINE
  5
3C2
330
3AB
100
AcDbEntity
  8
0
  6
CONTINUOUS
 62
     3
100
AcDbLine
 10
160.709408
 20
107.513913
 30
0.0
 11
160.713225
 21
107.529326
 31
0.0
  0
LINE
  5
3C3
330
3AB
100
AcDbEntity
  8
0
  6
CONTINUOUS
 62
     3
100
AcDbLine
 10
160.713225
 20
107.529326
 30
0.0
 11
160.716923
 21
107.544748
 31
0.0
  0
LINE
  5
3C4
330
3AB
100
AcDbEntity
  8
0
  6
CONTINUOUS
 62
     3
100
AcDbLine
 10
160.716923
 20
107.544748
 30
0.0
 11
160.720501
 21
107.56018
 31
0.0
  0
LINE
  5
3C5
330
3AB
100
AcDbEntity
  8
0
  6
CONTINUOUS
 62
     3
100
AcDbLine
 10
160.720501
 20
107.56018
 30
0.0
 11
160.723954
 21
107.575622
 31
0.0
  0
LINE
  5
3C6
330
3AB
100
AcDbEntity
  8
0
  6
CONTINUOUS
 62
     3
100
AcDbLine
 10
160.723954
 20
107.575622
 30
0.0
 11
160.72728
 21
107.591074
 31
0.0
  0
LINE
  5
3C7
330
3AB
100
AcDbEntity
  8
0
  6
CONTINUOUS
 62
     3
100
AcDbLine
 10
160.72728
 20
107.591074
 30
0.0
 11
160.730477
 21
107.606536
 31
0.0
  0
LINE
  5
3C8
330
3AB
100
AcDbEntity
  8
0
  6
CONTINUOUS
 62
     3
100
AcDbLine
 10
160.730477
 20
107.606536
 30
0.0
 11
160.73354
 21
107.622009
 31
0.0
  0
LINE
  5
3C9
330
3AB
100
AcDbEntity
  8
0
  6
CONTINUOUS
 62
     3
100
AcDbLine
 10
160.73354
 20
107.622009
 30
0.0
 11
160.736468
 21
107.637493
 31
0.0
  0
LINE
  5
3CA
330
3AB
100
AcDbEntity
  8
0
  6
CONTINUOUS
 62
     3
100
AcDbLine
 10
160.736468
 20
107.637493
 30
0.0
 11
160.739257
 21
107.652987
 31
0.0
  0
LINE
  5
3CB
330
3AB
100
AcDbEntity
  8
0
  6
CONTINUOUS
 62
     3
100
AcDbLine
 10
160.739257
 20
107.652987
 30
0.0
 11
160.741905
 21
107.668493
 31
0.0
  0
LINE
  5
3CC
330
3AB
100
AcDbEntity
  8
0
  6
CONTINUOUS
 62
     3
100
AcDbLine
 10
160.741905
 20
107.668493
 30
0.0
 11
160.744408
 21
107.684011
 31
0.0
  0
LINE
  5
3CD
330
3AB
100
AcDbEntity
  8
0
  6
CONTINUOUS
 62
     3
100
AcDbLine
 10
160.744408
 20
107.684011
 30
0.0
 11
160.746765
 21
107.69954
 31
0.0
  0
LINE
  5
3CE
330
3AB
100
AcDbEntity
  8
0
  6
CONTINUOUS
 62
     3
100
AcDbLine
 10
160.746765
 20
107.69954
 30
0.0
 11
160.74897
 21
107.715081
 31
0.0
  0
LINE
  5
3CF
330
3AB
100
AcDbEntity
  8
0
  6
CONTINUOUS
 62
     3
100
AcDbLine
 10
160.74897
 20
107.715081
 30
0.0
 11
160.751023
 21
107.730635
 31
0.0
  0
LINE
  5
3D0
330
3AB
100
AcDbEntity
  8
0
  6
CONTINUOUS
 62
     3
100
AcDbLine
 10
160.751023
 20
107.730635
 30
0.0
 11
160.752921
 21
107.7462
 31
0.0
  0
LINE
  5
3D1
330
3AB
100
AcDbEntity
  8
0
  6
CONTINUOUS
 62
     3
100
AcDbLine
 10
160.752921
 20
107.7462
 30
0.0
 11
160.754659
 21
107.761779
 31
0.0
  0
LINE
  5
3D2
330
3AB
100
AcDbEntity
  8
0
  6
CONTINUOUS
 62
     3
100
AcDbLine
 10
160.754659
 20
107.761779
 30
0.0
 11
160.756235
 21
107.77737
 31
0.0
  0
LINE
  5
3D3
330
3AB
100
AcDbEntity
  8
0
  6
CONTINUOUS
 62
     3
100
AcDbLine
 10
160.756235
 20
107.77737
 30
0.0
 11
160.757647
 21
107.792975
 31
0.0
  0
LINE
  5
3D4
330
3AB
100
AcDbEntity
  8
0
  6
CONTINUOUS
 62
     3
100
AcDbLine
 10
160.757647
 20
107.792975
 30
0.0
 11
160.758892
 21
107.808592
 31
0.0
  0
LINE
  5
3D5
330
3AB
100
AcDbEntity
  8
0
  6
CONTINUOUS
 62
     3
100
AcDbLine
 10
160.758892
 20
107.808592
 30
0.0
 11
160.759966
 21
107.824224
 31
0.0
  0
LINE
  5
3D6
330
3AB
100
AcDbEntity
  8
0
  6
CONTINUOUS
 62
     3
100
AcDbLine
 10
160.759966
 20
107.824224
 30
0.0
 11
160.760867
 21
107.839869
 31
0.0
  0
LINE
  5
3D7
330
3AB
100
AcDbEntity
  8
0
  6
CONTINUOUS
 62
     3
100
AcDbLine
 10
160.760867
 20
107.839869
 30
0.0
 11
160.761592
 21
107.855528
 31
0.0
  0
LINE
  5
3D8
330
3AB
100
AcDbEntity
  8
0
  6
CONTINUOUS
 62
     3
100
AcDbLine
 10
160.761592
 20
107.855528
 30
0.0
 11
160.762138
 21
107.871201
 31
0.0
  0
LINE
  5
3D9
330
3AB
100
AcDbEntity
  8
0
  6
CONTINUOUS
 62
     3
100
AcDbLine
 10
160.762138
 20
107.871201
 30
0.0
 11
160.762502
 21
107.886889
 31
0.0
  0
LINE
  5
3DA
330
3AB
100
AcDbEntity
  8
0
  6
CONTINUOUS
 62
     3
100
AcDbLine
 10
160.762502
 20
107.886889
 30
0.0
 11
160.762801
 21
107.920063
 31
0.0
  0
ENDBLK
  5
3AD
330
3AB
100
AcDbEntity
  8
0
100
AcDbBlockEnd
  0
BLOCK
  5
3DD
330
3DC
100
AcDbEntity
  8
0
100
AcDbBlockBegin
  2
BLKF034
 70
     0
 71
     0
 10
0.0
 20
0.0
 30
0.0
  3
BLKF034
  1

  0
LINE
  5
3E0
330
3DC
100
AcDbEntity
  8
0
  6
CONTINUOUS
 62
     3
100
AcDbLine
 10
157.630801
 20
106.902487
 30
0.0
 11
157.617983
 21
106.928762
 31
0.0
  0
LINE
  5
3E1
330
3DC
100
AcDbEntity
  8
0
  6
CONTINUOUS
 62
     3
100
AcDbLine
 10
157.617983
 20
106.928762
 30
0.0
 11
157.60522
 21
106.955051
 31
0.0
  0
LINE
  5
3E2
330
3DC
100
AcDbEntity
  8
0
  6
CONTINUOUS
 62
     3
100
AcDbLine
 10
157.60522
 20
106.955051
 30
0.0
 11
157.592565
 21
106.981366
 31
0.0
  0
LINE
  5
3E3
330
3DC
100
AcDbEntity
  8
0
  6
CONTINUOUS
 62
     3
100
AcDbLine
 10
157.592565
 20
106.981366
 30
0.0
 11
157.580072
 21
107.007722
 31
0.0
  0
LINE
  5
3E4
330
3DC
100
AcDbEntity
  8
0
  6
CONTINUOUS
 62
     3
100
AcDbLine
 10
157.580072
 20
107.007722
 30
0.0
 11
157.567794
 21
107.034131
 31
0.0
  0
LINE
  5
3E5
330
3DC
100
AcDbEntity
  8
0
  6
CONTINUOUS
 62
     3
100
AcDbLine
 10
157.567794
 20
107.034131
 30
0.0
 11
157.555787
 21
107.060607
 31
0.0
  0
LINE
  5
3E6
330
3DC
100
AcDbEntity
  8
0
  6
CONTINUOUS
 62
     3
100
AcDbLine
 10
157.555787
 20
107.060607
 30
0.0
 11
157.544103
 21
107.087164
 31
0.0
  0
LINE
  5
3E7
330
3DC
100
AcDbEntity
  8
0
  6
CONTINUOUS
 62
     3
100
AcDbLine
 10
157.544103
 20
107.087164
 30
0.0
 11
157.5384
 21
107.100477
 31
0.0
  0
LINE
  5
3E8
330
3DC
100
AcDbEntity
  8
0
  6
CONTINUOUS
 62
     3
100
AcDbLine
 10
157.5384
 20
107.100477
 30
0.0
 11
157.532798
 21
107.113814
 31
0.0
  0
LINE
  5
3E9
330
3DC
100
AcDbEntity
  8
0
  6
CONTINUOUS
 62
     3
100
AcDbLine
 10
157.532798
 20
107.113814
 30
0.0
 11
157.522801
 21
107.138183
 31
0.0
  0
ENDBLK
  5
3DE
330
3DC
100
AcDbEntity
  8
0
100
AcDbBlockEnd
  0
BLOCK
  5
3EC
330
3EB
100
AcDbEntity
  8
0
100
AcDbBlockBegin
  2
BLKF035
 70
     0
 71
     0
 10
0.0
 20
0.0
 30
0.0
  3
BLKF035
  1

  0
LINE
  5
3EF
330
3EB
100
AcDbEntity
  8
0
  6
CONTINUOUS
 62
     3
100
AcDbLine
 10
157.630801
 20
112.969295
 30
0.0
 11
157.60522
 21
112.982699
 31
0.0
  0
LINE
  5
3F0
330
3EB
100
AcDbEntity
  8
0
  6
CONTINUOUS
 62
     3
100
AcDbLine
 10
157.60522
 20
112.982699
 30
0.0
 11
157.592565
 21
112.98941
 31
0.0
  0
LINE
  5
3F1
330
3EB
100
AcDbEntity
  8
0
  6
CONTINUOUS
 62
     3
100
AcDbLine
 10
157.592565
 20
112.98941
 30
0.0
 11
157.580071
 21
112.996132
 31
0.0
  0
LINE
  5
3F2
330
3EB
100
AcDbEntity
  8
0
  6
CONTINUOUS
 62
     3
100
AcDbLine
 10
157.580071
 20
112.996132
 30
0.0
 11
157.567794
 21
113.002867
 31
0.0
  0
LINE
  5
3F3
330
3EB
100
AcDbEntity
  8
0
  6
CONTINUOUS
 62
     3
100
AcDbLine
 10
157.567794
 20
113.002867
 30
0.0
 11
157.555787
 21
113.009619
 31
0.0
  0
LINE
  5
3F4
330
3EB
100
AcDbEntity
  8
0
  6
CONTINUOUS
 62
     3
100
AcDbLine
 10
157.555787
 20
113.009619
 30
0.0
 11
157.544103
 21
113.016392
 31
0.0
  0
LINE
  5
3F5
330
3EB
100
AcDbEntity
  8
0
  6
CONTINUOUS
 62
     3
100
AcDbLine
 10
157.544103
 20
113.016392
 30
0.0
 11
157.532798
 21
113.023188
 31
0.0
  0
LINE
  5
3F6
330
3EB
100
AcDbEntity
  8
0
  6
CONTINUOUS
 62
     3
100
AcDbLine
 10
157.532798
 20
113.023188
 30
0.0
 11
157.522801
 21
113.029403
 31
0.0
  0
ENDBLK
  5
3ED
330
3EB
100
AcDbEntity
  8
0
100
AcDbBlockEnd
  0
BLOCK
  5
3FB
330
3FA
100
AcDbEntity
  8
0
100
AcDbBlockBegin
  2
BLKF036
 70
     0
 71
     0
 10
0.0
 20
0.0
 30
0.0
  3
BLKF036
  1

  0
LINE
  5
3FE
330
3FA
100
AcDbEntity
  8
0
  6
CONTINUOUS
 62
     3
100
AcDbLine
 10
160.492801
 20
106.610145
 30
0.0
 11
160.528729
 21
106.628272
 31
0.0
  0
LINE
  5
3FF
330
3FA
100
AcDbEntity
  8
0
  6
CONTINUOUS
 62
     3
100
AcDbLine
 10
160.528729
 20
106.628272
 30
0.0
 11
160.545625
 21
106.63739
 31
0.0
  0
LINE
  5
400
330
3FA
100
AcDbEntity
  8
0
  6
CONTINUOUS
 62
     3
100
AcDbLine
 10
160.545625
 20
106.63739
 30
0.0
 11
160.561239
 21
106.646574
 31
0.0
  0
LINE
  5
401
330
3FA
100
AcDbEntity
  8
0
  6
CONTINUOUS
 62
     3
100
AcDbLine
 10
160.561239
 20
106.646574
 30
0.0
 11
160.570958
 21
106.652879
 31
0.0
  0
LINE
  5
402
330
3FA
100
AcDbEntity
  8
0
  6
CONTINUOUS
 62
     3
100
AcDbLine
 10
160.570958
 20
106.652879
 30
0.0
 11
160.579932
 21
106.659222
 31
0.0
  0
LINE
  5
403
330
3FA
100
AcDbEntity
  8
0
  6
CONTINUOUS
 62
     3
100
AcDbLine
 10
160.579932
 20
106.659222
 30
0.0
 11
160.588212
 21
106.665601
 31
0.0
  0
LINE
  5
404
330
3FA
100
AcDbEntity
  8
0
  6
CONTINUOUS
 62
     3
100
AcDbLine
 10
160.588212
 20
106.665601
 30
0.0
 11
160.595848
 21
106.672013
 31
0.0
  0
LINE
  5
405
330
3FA
100
AcDbEntity
  8
0
  6
CONTINUOUS
 62
     3
100
AcDbLine
 10
160.595848
 20
106.672013
 30
0.0
 11
160.609382
 21
106.684924
 31
0.0
  0
LINE
  5
406
330
3FA
100
AcDbEntity
  8
0
  6
CONTINUOUS
 62
     3
100
AcDbLine
 10
160.609382
 20
106.684924
 30
0.0
 11
160.620932
 21
106.697937
 31
0.0
  0
LINE
  5
407
330
3FA
100
AcDbEntity
  8
0
  6
CONTINUOUS
 62
     3
100
AcDbLine
 10
160.620932
 20
106.697937
 30
0.0
 11
160.630895
 21
106.711031
 31
0.0
  0
LINE
  5
408
330
3FA
100
AcDbEntity
  8
0
  6
CONTINUOUS
 62
     3
100
AcDbLine
 10
160.630895
 20
106.711031
 30
0.0
 11
160.639667
 21
106.724185
 31
0.0
  0
LINE
  5
409
330
3FA
100
AcDbEntity
  8
0
  6
CONTINUOUS
 62
     3
100
AcDbLine
 10
160.639667
 20
106.724185
 30
0.0
 11
160.647646
 21
106.73738
 31
0.0
  0
LINE
  5
40A
330
3FA
100
AcDbEntity
  8
0
  6
CONTINUOUS
 62
     3
100
AcDbLine
 10
160.647646
 20
106.73738
 30
0.0
 11
160.655228
 21
106.750595
 31
0.0
  0
ENDBLK
  5
3FC
330
3FA
100
AcDbEntity
  8
0
100
AcDbBlockEnd
  0
BLOCK
  5
40F
330
40E
100
AcDbEntity
  8
0
100
AcDbBlockBegin
  2
BLKF037
 70
     0
 71
     0
 10
0.0
 20
0.0
 30
0.0
  3
BLKF037
  1

  0
LINE
  5
412
330
40E
100
AcDbEntity
  8
0
  6
CONTINUOUS
 62
     3
100
AcDbLine
 10
157.522801
 20
113.428202
 30
0.0
 11
157.545192
 21
113.441459
 31
0.0
  0
LINE
  5
413
330
40E
100
AcDbEntity
  8
0
  6
CONTINUOUS
 62
     3
100
AcDbLine
 10
157.545192
 20
113.441459
 30
0.0
 11
157.55651
 21
113.44808
 31
0.0
  0
LINE
  5
414
330
40E
100
AcDbEntity
  8
0
  6
CONTINUOUS
 62
     3
100
AcDbLine
 10
157.55651
 20
113.44808
 30
0.0
 11
157.567975
 21
113.45469
 31
0.0
  0
LINE
  5
415
330
40E
100
AcDbEntity
  8
0
  6
CONTINUOUS
 62
     3
100
AcDbLine
 10
157.567975
 20
113.45469
 30
0.0
 11
157.579634
 21
113.461286
 31
0.0
  0
LINE
  5
416
330
40E
100
AcDbEntity
  8
0
  6
CONTINUOUS
 62
     3
100
AcDbLine
 10
157.579634
 20
113.461286
 30
0.0
 11
157.591538
 21
113.467866
 31
0.0
  0
LINE
  5
417
330
40E
100
AcDbEntity
  8
0
  6
CONTINUOUS
 62
     3
100
AcDbLine
 10
157.591538
 20
113.467866
 30
0.0
 11
157.603734
 21
113.474425
 31
0.0
  0
LINE
  5
418
330
40E
100
AcDbEntity
  8
0
  6
CONTINUOUS
 62
     3
100
AcDbLine
 10
157.603734
 20
113.474425
 30
0.0
 11
157.616272
 21
113.480961
 31
0.0
  0
LINE
  5
419
330
40E
100
AcDbEntity
  8
0
  6
CONTINUOUS
 62
     3
100
AcDbLine
 10
157.616272
 20
113.480961
 30
0.0
 11
157.630801
 21
113.488312
 31
0.0
  0
ENDBLK
  5
410
330
40E
100
AcDbEntity
  8
0
100
AcDbBlockEnd
  0
BLOCK
  5
41E
330
41D
100
AcDbEntity
  8
0
100
AcDbBlockBegin
  2
BLKF038
 70
     0
 71
     0
 10
0.0
 20
0.0
 30
0.0
  3
BLKF038
  1

  0
LINE
  5
421
330
41D
100
AcDbEntity
  8
0
  6
CONTINUOUS
 62
     3
100
AcDbLine
 10
157.522801
 20
106.670254
 30
0.0
 11
157.545192
 21
106.656997
 31
0.0
  0
LINE
  5
422
330
41D
100
AcDbEntity
  8
0
  6
CONTINUOUS
 62
     3
100
AcDbLine
 10
157.545192
 20
106.656997
 30
0.0
 11
157.55651
 21
106.650377
 31
0.0
  0
LINE
  5
423
330
41D
100
AcDbEntity
  8
0
  6
CONTINUOUS
 62
     3
100
AcDbLine
 10
157.55651
 20
106.650377
 30
0.0
 11
157.567975
 21
106.643767
 31
0.0
  0
LINE
  5
424
330
41D
100
AcDbEntity
  8
0
  6
CONTINUOUS
 62
     3
100
AcDbLine
 10
157.567975
 20
106.643767
 30
0.0
 11
157.579634
 21
106.63717
 31
0.0
  0
LINE
  5
425
330
41D
100
AcDbEntity
  8
0
  6
CONTINUOUS
 62
     3
100
AcDbLine
 10
157.579634
 20
106.63717
 30
0.0
 11
157.591538
 21
106.630591
 31
0.0
  0
LINE
  5
426
330
41D
100
AcDbEntity
  8
0
  6
CONTINUOUS
 62
     3
100
AcDbLine
 10
157.591538
 20
106.630591
 30
0.0
 11
157.603734
 21
106.624031
 31
0.0
  0
LINE
  5
427
330
41D
100
AcDbEntity
  8
0
  6
CONTINUOUS
 62
     3
100
AcDbLine
 10
157.603734
 20
106.624031
 30
0.0
 11
157.616272
 21
106.617496
 31
0.0
  0
LINE
  5
428
330
41D
100
AcDbEntity
  8
0
  6
CONTINUOUS
 62
     3
100
AcDbLine
 10
157.616272
 20
106.617496
 30
0.0
 11
157.630801
 21
106.610145
 31
0.0
  0
ENDBLK
  5
41F
330
41D
100
AcDbEntity
  8
0
100
AcDbBlockEnd
  0
BLOCK
  5
42D
330
42C
100
AcDbEntity
  8
0
100
AcDbBlockBegin
  2
BLKF039
 70
     0
 71
     0
 10
0.0
 20
0.0
 30
0.0
  3
BLKF039
  1

  0
LINE
  5
430
330
42C
100
AcDbEntity
  8
0
  6
CONTINUOUS
 62
     3
100
AcDbLine
 10
157.2528
 20
109.740503
 30
0.0
 11
157.270491
 21
109.698679
 31
0.0
  0
LINE
  5
431
330
42C
100
AcDbEntity
  8
0
  6
CONTINUOUS
 62
     3
100
AcDbLine
 10
157.270491
 20
109.698679
 30
0.0
 11
157.28795
 21
109.656801
 31
0.0
  0
LINE
  5
432
330
42C
100
AcDbEntity
  8
0
  6
CONTINUOUS
 62
     3
100
AcDbLine
 10
157.28795
 20
109.656801
 30
0.0
 11
157.304944
 21
109.614814
 31
0.0
  0
LINE
  5
433
330
42C
100
AcDbEntity
  8
0
  6
CONTINUOUS
 62
     3
100
AcDbLine
 10
157.304944
 20
109.614814
 30
0.0
 11
157.32124
 21
109.572662
 31
0.0
  0
LINE
  5
434
330
42C
100
AcDbEntity
  8
0
  6
CONTINUOUS
 62
     3
100
AcDbLine
 10
157.32124
 20
109.572662
 30
0.0
 11
157.332591
 21
109.54173
 31
0.0
  0
LINE
  5
435
330
42C
100
AcDbEntity
  8
0
  6
CONTINUOUS
 62
     3
100
AcDbLine
 10
157.332591
 20
109.54173
 30
0.0
 11
157.34346
 21
109.510685
 31
0.0
  0
LINE
  5
436
330
42C
100
AcDbEntity
  8
0
  6
CONTINUOUS
 62
     3
100
AcDbLine
 10
157.34346
 20
109.510685
 30
0.0
 11
157.353864
 21
109.47953
 31
0.0
  0
LINE
  5
437
330
42C
100
AcDbEntity
  8
0
  6
CONTINUOUS
 62
     3
100
AcDbLine
 10
157.353864
 20
109.47953
 30
0.0
 11
157.363818
 21
109.448269
 31
0.0
  0
LINE
  5
438
330
42C
100
AcDbEntity
  8
0
  6
CONTINUOUS
 62
     3
100
AcDbLine
 10
157.363818
 20
109.448269
 30
0.0
 11
157.373338
 21
109.416907
 31
0.0
  0
LINE
  5
439
330
42C
100
AcDbEntity
  8
0
  6
CONTINUOUS
 62
     3
100
AcDbLine
 10
157.373338
 20
109.416907
 30
0.0
 11
157.382438
 21
109.385446
 31
0.0
  0
LINE
  5
43A
330
42C
100
AcDbEntity
  8
0
  6
CONTINUOUS
 62
     3
100
AcDbLine
 10
157.382438
 20
109.385446
 30
0.0
 11
157.391135
 21
109.35389
 31
0.0
  0
LINE
  5
43B
330
42C
100
AcDbEntity
  8
0
  6
CONTINUOUS
 62
     3
100
AcDbLine
 10
157.391135
 20
109.35389
 30
0.0
 11
157.399443
 21
109.322243
 31
0.0
  0
LINE
  5
43C
330
42C
100
AcDbEntity
  8
0
  6
CONTINUOUS
 62
     3
100
AcDbLine
 10
157.399443
 20
109.322243
 30
0.0
 11
157.40738
 21
109.290508
 31
0.0
  0
LINE
  5
43D
330
42C
100
AcDbEntity
  8
0
  6
CONTINUOUS
 62
     3
100
AcDbLine
 10
157.40738
 20
109.290508
 30
0.0
 11
157.414959
 21
109.25869
 31
0.0
  0
LINE
  5
43E
330
42C
100
AcDbEntity
  8
0
  6
CONTINUOUS
 62
     3
100
AcDbLine
 10
157.414959
 20
109.25869
 30
0.0
 11
157.422197
 21
109.226791
 31
0.0
  0
LINE
  5
43F
330
42C
100
AcDbEntity
  8
0
  6
CONTINUOUS
 62
     3
100
AcDbLine
 10
157.422197
 20
109.226791
 30
0.0
 11
157.429109
 21
109.194816
 31
0.0
  0
LINE
  5
440
330
42C
100
AcDbEntity
  8
0
  6
CONTINUOUS
 62
     3
100
AcDbLine
 10
157.429109
 20
109.194816
 30
0.0
 11
157.43571
 21
109.162768
 31
0.0
  0
LINE
  5
441
330
42C
100
AcDbEntity
  8
0
  6
CONTINUOUS
 62
     3
100
AcDbLine
 10
157.43571
 20
109.162768
 30
0.0
 11
157.442017
 21
109.13065
 31
0.0
  0
LINE
  5
442
330
42C
100
AcDbEntity
  8
0
  6
CONTINUOUS
 62
     3
100
AcDbLine
 10
157.442017
 20
109.13065
 30
0.0
 11
157.453807
 21
109.066222
 31
0.0
  0
LINE
  5
443
330
42C
100
AcDbEntity
  8
0
  6
CONTINUOUS
 62
     3
100
AcDbLine
 10
157.453807
 20
109.066222
 30
0.0
 11
157.464604
 21
109.001561
 31
0.0
  0
LINE
  5
444
330
42C
100
AcDbEntity
  8
0
  6
CONTINUOUS
 62
     3
100
AcDbLine
 10
157.464604
 20
109.001561
 30
0.0
 11
157.474532
 21
108.936696
 31
0.0
  0
LINE
  5
445
330
42C
100
AcDbEntity
  8
0
  6
CONTINUOUS
 62
     3
100
AcDbLine
 10
157.474532
 20
108.936696
 30
0.0
 11
157.483715
 21
108.871655
 31
0.0
  0
LINE
  5
446
330
42C
100
AcDbEntity
  8
0
  6
CONTINUOUS
 62
     3
100
AcDbLine
 10
157.483715
 20
108.871655
 30
0.0
 11
157.492277
 21
108.806469
 31
0.0
  0
LINE
  5
447
330
42C
100
AcDbEntity
  8
0
  6
CONTINUOUS
 62
     3
100
AcDbLine
 10
157.492277
 20
108.806469
 30
0.0
 11
157.500343
 21
108.741166
 31
0.0
  0
LINE
  5
448
330
42C
100
AcDbEntity
  8
0
  6
CONTINUOUS
 62
     3
100
AcDbLine
 10
157.500343
 20
108.741166
 30
0.0
 11
157.508036
 21
108.675775
 31
0.0
  0
LINE
  5
449
330
42C
100
AcDbEntity
  8
0
  6
CONTINUOUS
 62
     3
100
AcDbLine
 10
157.508036
 20
108.675775
 30
0.0
 11
157.522801
 21
108.544848
 31
0.0
  0
ENDBLK
  5
42E
330
42C
100
AcDbEntity
  8
0
100
AcDbBlockEnd
  0
BLOCK
  5
44C
330
44B
100
AcDbEntity
  8
0
100
AcDbBlockBegin
  2
BLKF040
 70
     0
 71
     0
 10
0.0
 20
0.0
 30
0.0
  3
BLKF040
  1

  0
LINE
  5
44F
330
44B
100
AcDbEntity
  8
0
  6
CONTINUOUS
 62
     3
100
AcDbLine
 10
157.2528
 20
110.641486
 30
0.0
 11
157.270491
 21
110.681387
 31
0.0
  0
LINE
  5
450
330
44B
100
AcDbEntity
  8
0
  6
CONTINUOUS
 62
     3
100
AcDbLine
 10
157.270491
 20
110.681387
 30
0.0
 11
157.28795
 21
110.721339
 31
0.0
  0
LINE
  5
451
330
44B
100
AcDbEntity
  8
0
  6
CONTINUOUS
 62
     3
100
AcDbLine
 10
157.28795
 20
110.721339
 30
0.0
 11
157.304944
 21
110.761396
 31
0.0
  0
LINE
  5
452
330
44B
100
AcDbEntity
  8
0
  6
CONTINUOUS
 62
     3
100
AcDbLine
 10
157.304944
 20
110.761396
 30
0.0
 11
157.32124
 21
110.801609
 31
0.0
  0
LINE
  5
453
330
44B
100
AcDbEntity
  8
0
  6
CONTINUOUS
 62
     3
100
AcDbLine
 10
157.32124
 20
110.801609
 30
0.0
 11
157.332591
 21
110.831119
 31
0.0
  0
LINE
  5
454
330
44B
100
AcDbEntity
  8
0
  6
CONTINUOUS
 62
     3
100
AcDbLine
 10
157.332591
 20
110.831119
 30
0.0
 11
157.34346
 21
110.860737
 31
0.0
  0
LINE
  5
455
330
44B
100
AcDbEntity
  8
0
  6
CONTINUOUS
 62
     3
100
AcDbLine
 10
157.34346
 20
110.860737
 30
0.0
 11
157.353864
 21
110.890459
 31
0.0
  0
LINE
  5
456
330
44B
100
AcDbEntity
  8
0
  6
CONTINUOUS
 62
     3
100
AcDbLine
 10
157.353864
 20
110.890459
 30
0.0
 11
157.363818
 21
110.920282
 31
0.0
  0
LINE
  5
457
330
44B
100
AcDbEntity
  8
0
  6
CONTINUOUS
 62
     3
100
AcDbLine
 10
157.363818
 20
110.920282
 30
0.0
 11
157.373338
 21
110.950203
 31
0.0
  0
LINE
  5
458
330
44B
100
AcDbEntity
  8
0
  6
CONTINUOUS
 62
     3
100
AcDbLine
 10
157.373338
 20
110.950203
 30
0.0
 11
157.382438
 21
110.980217
 31
0.0
  0
LINE
  5
459
330
44B
100
AcDbEntity
  8
0
  6
CONTINUOUS
 62
     3
100
AcDbLine
 10
157.382438
 20
110.980217
 30
0.0
 11
157.391135
 21
111.010322
 31
0.0
  0
LINE
  5
45A
330
44B
100
AcDbEntity
  8
0
  6
CONTINUOUS
 62
     3
100
AcDbLine
 10
157.391135
 20
111.010322
 30
0.0
 11
157.399443
 21
111.040514
 31
0.0
  0
LINE
  5
45B
330
44B
100
AcDbEntity
  8
0
  6
CONTINUOUS
 62
     3
100
AcDbLine
 10
157.399443
 20
111.040514
 30
0.0
 11
157.40738
 21
111.070789
 31
0.0
  0
LINE
  5
45C
330
44B
100
AcDbEntity
  8
0
  6
CONTINUOUS
 62
     3
100
AcDbLine
 10
157.40738
 20
111.070789
 30
0.0
 11
157.414959
 21
111.101144
 31
0.0
  0
LINE
  5
45D
330
44B
100
AcDbEntity
  8
0
  6
CONTINUOUS
 62
     3
100
AcDbLine
 10
157.414959
 20
111.101144
 30
0.0
 11
157.422197
 21
111.131576
 31
0.0
  0
LINE
  5
45E
330
44B
100
AcDbEntity
  8
0
  6
CONTINUOUS
 62
     3
100
AcDbLine
 10
157.422197
 20
111.131576
 30
0.0
 11
157.429108
 21
111.162081
 31
0.0
  0
LINE
  5
45F
330
44B
100
AcDbEntity
  8
0
  6
CONTINUOUS
 62
     3
100
AcDbLine
 10
157.429108
 20
111.162081
 30
0.0
 11
157.43571
 21
111.192655
 31
0.0
  0
LINE
  5
460
330
44B
100
AcDbEntity
  8
0
  6
CONTINUOUS
 62
     3
100
AcDbLine
 10
157.43571
 20
111.192655
 30
0.0
 11
157.442016
 21
111.223296
 31
0.0
  0
LINE
  5
461
330
44B
100
AcDbEntity
  8
0
  6
CONTINUOUS
 62
     3
100
AcDbLine
 10
157.442016
 20
111.223296
 30
0.0
 11
157.453807
 21
111.284761
 31
0.0
  0
LINE
  5
462
330
44B
100
AcDbEntity
  8
0
  6
CONTINUOUS
 62
     3
100
AcDbLine
 10
157.453807
 20
111.284761
 30
0.0
 11
157.464604
 21
111.346449
 31
0.0
  0
LINE
  5
463
330
44B
100
AcDbEntity
  8
0
  6
CONTINUOUS
 62
     3
100
AcDbLine
 10
157.464604
 20
111.346449
 30
0.0
 11
157.474532
 21
111.408332
 31
0.0
  0
LINE
  5
464
330
44B
100
AcDbEntity
  8
0
  6
CONTINUOUS
 62
     3
100
AcDbLine
 10
157.474532
 20
111.408332
 30
0.0
 11
157.483715
 21
111.470381
 31
0.0
  0
LINE
  5
465
330
44B
100
AcDbEntity
  8
0
  6
CONTINUOUS
 62
     3
100
AcDbLine
 10
157.483715
 20
111.470381
 30
0.0
 11
157.492277
 21
111.53257
 31
0.0
  0
LINE
  5
466
330
44B
100
AcDbEntity
  8
0
  6
CONTINUOUS
 62
     3
100
AcDbLine
 10
157.492277
 20
111.53257
 30
0.0
 11
157.500343
 21
111.59487
 31
0.0
  0
LINE
  5
467
330
44B
100
AcDbEntity
  8
0
  6
CONTINUOUS
 62
     3
100
AcDbLine
 10
157.500343
 20
111.59487
 30
0.0
 11
157.508036
 21
111.657254
 31
0.0
  0
LINE
  5
468
330
44B
100
AcDbEntity
  8
0
  6
CONTINUOUS
 62
     3
100
AcDbLine
 10
157.508036
 20
111.657254
 30
0.0
 11
157.522801
 21
111.78216
 31
0.0
  0
ENDBLK
  5
44D
330
44B
100
AcDbEntity
  8
0
100
AcDbBlockEnd
  0
BLOCK
  5
46A
330
469
100
AcDbEntity
  8
0
100
AcDbBlockBegin
  2
BLKF041
 70
     0
 71
     0
 10
0.0
 20
0.0
 30
0.0
  3
BLKF041
  1

  0
LINE
  5
46D
330
469
100
AcDbEntity
  8
0
  6
CONTINUOUS
 62
     3
100
AcDbLine
 10
157.2528
 20
107.349193
 30
0.0
 11
157.277511
 21
107.420751
 31
0.0
  0
LINE
  5
46E
330
469
100
AcDbEntity
  8
0
  6
CONTINUOUS
 62
     3
100
AcDbLine
 10
157.277511
 20
107.420751
 30
0.0
 11
157.289808
 21
107.456535
 31
0.0
  0
LINE
  5
46F
330
469
100
AcDbEntity
  8
0
  6
CONTINUOUS
 62
     3
100
AcDbLine
 10
157.289808
 20
107.456535
 30
0.0
 11
157.302037
 21
107.492326
 31
0.0
  0
LINE
  5
470
330
469
100
AcDbEntity
  8
0
  6
CONTINUOUS
 62
     3
100
AcDbLine
 10
157.302037
 20
107.492326
 30
0.0
 11
157.314173
 21
107.528125
 31
0.0
  0
LINE
  5
471
330
469
100
AcDbEntity
  8
0
  6
CONTINUOUS
 62
     3
100
AcDbLine
 10
157.314173
 20
107.528125
 30
0.0
 11
157.326193
 21
107.563935
 31
0.0
  0
LINE
  5
472
330
469
100
AcDbEntity
  8
0
  6
CONTINUOUS
 62
     3
100
AcDbLine
 10
157.326193
 20
107.563935
 30
0.0
 11
157.338075
 21
107.599758
 31
0.0
  0
LINE
  5
473
330
469
100
AcDbEntity
  8
0
  6
CONTINUOUS
 62
     3
100
AcDbLine
 10
157.338075
 20
107.599758
 30
0.0
 11
157.349795
 21
107.635597
 31
0.0
  0
LINE
  5
474
330
469
100
AcDbEntity
  8
0
  6
CONTINUOUS
 62
     3
100
AcDbLine
 10
157.349795
 20
107.635597
 30
0.0
 11
157.36133
 21
107.671452
 31
0.0
  0
LINE
  5
475
330
469
100
AcDbEntity
  8
0
  6
CONTINUOUS
 62
     3
100
AcDbLine
 10
157.36133
 20
107.671452
 30
0.0
 11
157.372657
 21
107.707327
 31
0.0
  0
LINE
  5
476
330
469
100
AcDbEntity
  8
0
  6
CONTINUOUS
 62
     3
100
AcDbLine
 10
157.372657
 20
107.707327
 30
0.0
 11
157.383754
 21
107.743224
 31
0.0
  0
LINE
  5
477
330
469
100
AcDbEntity
  8
0
  6
CONTINUOUS
 62
     3
100
AcDbLine
 10
157.383754
 20
107.743224
 30
0.0
 11
157.394596
 21
107.779144
 31
0.0
  0
LINE
  5
478
330
469
100
AcDbEntity
  8
0
  6
CONTINUOUS
 62
     3
100
AcDbLine
 10
157.394596
 20
107.779144
 30
0.0
 11
157.405161
 21
107.81509
 31
0.0
  0
LINE
  5
479
330
469
100
AcDbEntity
  8
0
  6
CONTINUOUS
 62
     3
100
AcDbLine
 10
157.405161
 20
107.81509
 30
0.0
 11
157.415426
 21
107.851065
 31
0.0
  0
LINE
  5
47A
330
469
100
AcDbEntity
  8
0
  6
CONTINUOUS
 62
     3
100
AcDbLine
 10
157.415426
 20
107.851065
 30
0.0
 11
157.425367
 21
107.887069
 31
0.0
  0
LINE
  5
47B
330
469
100
AcDbEntity
  8
0
  6
CONTINUOUS
 62
     3
100
AcDbLine
 10
157.425367
 20
107.887069
 30
0.0
 11
157.434962
 21
107.923106
 31
0.0
  0
LINE
  5
47C
330
469
100
AcDbEntity
  8
0
  6
CONTINUOUS
 62
     3
100
AcDbLine
 10
157.434962
 20
107.923106
 30
0.0
 11
157.444187
 21
107.959178
 31
0.0
  0
LINE
  5
47D
330
469
100
AcDbEntity
  8
0
  6
CONTINUOUS
 62
     3
100
AcDbLine
 10
157.444187
 20
107.959178
 30
0.0
 11
157.453019
 21
107.995286
 31
0.0
  0
LINE
  5
47E
330
469
100
AcDbEntity
  8
0
  6
CONTINUOUS
 62
     3
100
AcDbLine
 10
157.453019
 20
107.995286
 30
0.0
 11
157.461436
 21
108.031433
 31
0.0
  0
LINE
  5
47F
330
469
100
AcDbEntity
  8
0
  6
CONTINUOUS
 62
     3
100
AcDbLine
 10
157.461436
 20
108.031433
 30
0.0
 11
157.469414
 21
108.067621
 31
0.0
  0
LINE
  5
480
330
469
100
AcDbEntity
  8
0
  6
CONTINUOUS
 62
     3
100
AcDbLine
 10
157.469414
 20
108.067621
 30
0.0
 11
157.473231
 21
108.085732
 31
0.0
  0
LINE
  5
481
330
469
100
AcDbEntity
  8
0
  6
CONTINUOUS
 62
     3
100
AcDbLine
 10
157.473231
 20
108.085732
 30
0.0
 11
157.476929
 21
108.103853
 31
0.0
  0
LINE
  5
482
330
469
100
AcDbEntity
  8
0
  6
CONTINUOUS
 62
     3
100
AcDbLine
 10
157.476929
 20
108.103853
 30
0.0
 11
157.480507
 21
108.121986
 31
0.0
  0
LINE
  5
483
330
469
100
AcDbEntity
  8
0
  6
CONTINUOUS
 62
     3
100
AcDbLine
 10
157.480507
 20
108.121986
 30
0.0
 11
157.48396
 21
108.14013
 31
0.0
  0
LINE
  5
484
330
469
100
AcDbEntity
  8
0
  6
CONTINUOUS
 62
     3
100
AcDbLine
 10
157.48396
 20
108.14013
 30
0.0
 11
157.487286
 21
108.158286
 31
0.0
  0
LINE
  5
485
330
469
100
AcDbEntity
  8
0
  6
CONTINUOUS
 62
     3
100
AcDbLine
 10
157.487286
 20
108.158286
 30
0.0
 11
157.490482
 21
108.176454
 31
0.0
  0
LINE
  5
486
330
469
100
AcDbEntity
  8
0
  6
CONTINUOUS
 62
     3
100
AcDbLine
 10
157.490482
 20
108.176454
 30
0.0
 11
157.493546
 21
108.194635
 31
0.0
  0
LINE
  5
487
330
469
100
AcDbEntity
  8
0
  6
CONTINUOUS
 62
     3
100
AcDbLine
 10
157.493546
 20
108.194635
 30
0.0
 11
157.496473
 21
108.212828
 31
0.0
  0
LINE
  5
488
330
469
100
AcDbEntity
  8
0
  6
CONTINUOUS
 62
     3
100
AcDbLine
 10
157.496473
 20
108.212828
 30
0.0
 11
157.499262
 21
108.231034
 31
0.0
  0
LINE
  5
489
330
469
100
AcDbEntity
  8
0
  6
CONTINUOUS
 62
     3
100
AcDbLine
 10
157.499262
 20
108.231034
 30
0.0
 11
157.50191
 21
108.249254
 31
0.0
  0
LINE
  5
48A
330
469
100
AcDbEntity
  8
0
  6
CONTINUOUS
 62
     3
100
AcDbLine
 10
157.50191
 20
108.249254
 30
0.0
 11
157.504413
 21
108.267487
 31
0.0
  0
LINE
  5
48B
330
469
100
AcDbEntity
  8
0
  6
CONTINUOUS
 62
     3
100
AcDbLine
 10
157.504413
 20
108.267487
 30
0.0
 11
157.506769
 21
108.285734
 31
0.0
  0
LINE
  5
48C
330
469
100
AcDbEntity
  8
0
  6
CONTINUOUS
 62
     3
100
AcDbLine
 10
157.506769
 20
108.285734
 30
0.0
 11
157.508975
 21
108.303995
 31
0.0
  0
LINE
  5
48D
330
469
100
AcDbEntity
  8
0
  6
CONTINUOUS
 62
     3
100
AcDbLine
 10
157.508975
 20
108.303995
 30
0.0
 11
157.511027
 21
108.32227
 31
0.0
  0
LINE
  5
48E
330
469
100
AcDbEntity
  8
0
  6
CONTINUOUS
 62
     3
100
AcDbLine
 10
157.511027
 20
108.32227
 30
0.0
 11
157.512924
 21
108.34056
 31
0.0
  0
LINE
  5
48F
330
469
100
AcDbEntity
  8
0
  6
CONTINUOUS
 62
     3
100
AcDbLine
 10
157.512924
 20
108.34056
 30
0.0
 11
157.514662
 21
108.358864
 31
0.0
  0
LINE
  5
490
330
469
100
AcDbEntity
  8
0
  6
CONTINUOUS
 62
     3
100
AcDbLine
 10
157.514662
 20
108.358864
 30
0.0
 11
157.516239
 21
108.377184
 31
0.0
  0
LINE
  5
491
330
469
100
AcDbEntity
  8
0
  6
CONTINUOUS
 62
     3
100
AcDbLine
 10
157.516239
 20
108.377184
 30
0.0
 11
157.51765
 21
108.395519
 31
0.0
  0
LINE
  5
492
330
469
100
AcDbEntity
  8
0
  6
CONTINUOUS
 62
     3
100
AcDbLine
 10
157.51765
 20
108.395519
 30
0.0
 11
157.518894
 21
108.41387
 31
0.0
  0
LINE
  5
493
330
469
100
AcDbEntity
  8
0
  6
CONTINUOUS
 62
     3
100
AcDbLine
 10
157.518894
 20
108.41387
 30
0.0
 11
157.519968
 21
108.432237
 31
0.0
  0
LINE
  5
494
330
469
100
AcDbEntity
  8
0
  6
CONTINUOUS
 62
     3
100
AcDbLine
 10
157.519968
 20
108.432237
 30
0.0
 11
157.520869
 21
108.45062
 31
0.0
  0
LINE
  5
495
330
469
100
AcDbEntity
  8
0
  6
CONTINUOUS
 62
     3
100
AcDbLine
 10
157.520869
 20
108.45062
 30
0.0
 11
157.521593
 21
108.469019
 31
0.0
  0
LINE
  5
496
330
469
100
AcDbEntity
  8
0
  6
CONTINUOUS
 62
     3
100
AcDbLine
 10
157.521593
 20
108.469019
 30
0.0
 11
157.522139
 21
108.487436
 31
0.0
  0
LINE
  5
497
330
469
100
AcDbEntity
  8
0
  6
CONTINUOUS
 62
     3
100
AcDbLine
 10
157.522139
 20
108.487436
 30
0.0
 11
157.522502
 21
108.505869
 31
0.0
  0
LINE
  5
498
330
469
100
AcDbEntity
  8
0
  6
CONTINUOUS
 62
     3
100
AcDbLine
 10
157.522502
 20
108.505869
 30
0.0
 11
157.522801
 21
108.544848
 31
0.0
  0
ENDBLK
  5
46B
330
469
100
AcDbEntity
  8
0
100
AcDbBlockEnd
  0
BLOCK
  5
49E
330
49D
100
AcDbEntity
  8
0
100
AcDbBlockBegin
  2
BLKF042
 70
     0
 71
     0
 10
0.0
 20
0.0
 30
0.0
  3
BLKF042
  1

  0
LINE
  5
4A1
330
49D
100
AcDbEntity
  8
0
  6
CONTINUOUS
 62
     3
100
AcDbLine
 10
157.2528
 20
112.922834
 30
0.0
 11
157.270491
 21
112.882933
 31
0.0
  0
LINE
  5
4A2
330
49D
100
AcDbEntity
  8
0
  6
CONTINUOUS
 62
     3
100
AcDbLine
 10
157.270491
 20
112.882933
 30
0.0
 11
157.28795
 21
112.842981
 31
0.0
  0
LINE
  5
4A3
330
49D
100
AcDbEntity
  8
0
  6
CONTINUOUS
 62
     3
100
AcDbLine
 10
157.28795
 20
112.842981
 30
0.0
 11
157.304944
 21
112.802924
 31
0.0
  0
LINE
  5
4A4
330
49D
100
AcDbEntity
  8
0
  6
CONTINUOUS
 62
     3
100
AcDbLine
 10
157.304944
 20
112.802924
 30
0.0
 11
157.32124
 21
112.762711
 31
0.0
  0
LINE
  5
4A5
330
49D
100
AcDbEntity
  8
0
  6
CONTINUOUS
 62
     3
100
AcDbLine
 10
157.32124
 20
112.762711
 30
0.0
 11
157.332591
 21
112.733201
 31
0.0
  0
LINE
  5
4A6
330
49D
100
AcDbEntity
  8
0
  6
CONTINUOUS
 62
     3
100
AcDbLine
 10
157.332591
 20
112.733201
 30
0.0
 11
157.34346
 21
112.703583
 31
0.0
  0
LINE
  5
4A7
330
49D
100
AcDbEntity
  8
0
  6
CONTINUOUS
 62
     3
100
AcDbLine
 10
157.34346
 20
112.703583
 30
0.0
 11
157.353864
 21
112.673861
 31
0.0
  0
LINE
  5
4A8
330
49D
100
AcDbEntity
  8
0
  6
CONTINUOUS
 62
     3
100
AcDbLine
 10
157.353864
 20
112.673861
 30
0.0
 11
157.363818
 21
112.644038
 31
0.0
  0
LINE
  5
4A9
330
49D
100
AcDbEntity
  8
0
  6
CONTINUOUS
 62
     3
100
AcDbLine
 10
157.363818
 20
112.644038
 30
0.0
 11
157.373338
 21
112.614117
 31
0.0
  0
LINE
  5
4AA
330
49D
100
AcDbEntity
  8
0
  6
CONTINUOUS
 62
     3
100
AcDbLine
 10
157.373338
 20
112.614117
 30
0.0
 11
157.382438
 21
112.584103
 31
0.0
  0
LINE
  5
4AB
330
49D
100
AcDbEntity
  8
0
  6
CONTINUOUS
 62
     3
100
AcDbLine
 10
157.382438
 20
112.584103
 30
0.0
 11
157.391135
 21
112.553998
 31
0.0
  0
LINE
  5
4AC
330
49D
100
AcDbEntity
  8
0
  6
CONTINUOUS
 62
     3
100
AcDbLine
 10
157.391135
 20
112.553998
 30
0.0
 11
157.399443
 21
112.523807
 31
0.0
  0
LINE
  5
4AD
330
49D
100
AcDbEntity
  8
0
  6
CONTINUOUS
 62
     3
100
AcDbLine
 10
157.399443
 20
112.523807
 30
0.0
 11
157.40738
 21
112.493531
 31
0.0
  0
LINE
  5
4AE
330
49D
100
AcDbEntity
  8
0
  6
CONTINUOUS
 62
     3
100
AcDbLine
 10
157.40738
 20
112.493531
 30
0.0
 11
157.414959
 21
112.463176
 31
0.0
  0
LINE
  5
4AF
330
49D
100
AcDbEntity
  8
0
  6
CONTINUOUS
 62
     3
100
AcDbLine
 10
157.414959
 20
112.463176
 30
0.0
 11
157.422197
 21
112.432744
 31
0.0
  0
LINE
  5
4B0
330
49D
100
AcDbEntity
  8
0
  6
CONTINUOUS
 62
     3
100
AcDbLine
 10
157.422197
 20
112.432744
 30
0.0
 11
157.429108
 21
112.402239
 31
0.0
  0
LINE
  5
4B1
330
49D
100
AcDbEntity
  8
0
  6
CONTINUOUS
 62
     3
100
AcDbLine
 10
157.429108
 20
112.402239
 30
0.0
 11
157.43571
 21
112.371665
 31
0.0
  0
LINE
  5
4B2
330
49D
100
AcDbEntity
  8
0
  6
CONTINUOUS
 62
     3
100
AcDbLine
 10
157.43571
 20
112.371665
 30
0.0
 11
157.442016
 21
112.341025
 31
0.0
  0
LINE
  5
4B3
330
49D
100
AcDbEntity
  8
0
  6
CONTINUOUS
 62
     3
100
AcDbLine
 10
157.442016
 20
112.341025
 30
0.0
 11
157.453807
 21
112.279559
 31
0.0
  0
LINE
  5
4B4
330
49D
100
AcDbEntity
  8
0
  6
CONTINUOUS
 62
     3
100
AcDbLine
 10
157.453807
 20
112.279559
 30
0.0
 11
157.464604
 21
112.217871
 31
0.0
  0
LINE
  5
4B5
330
49D
100
AcDbEntity
  8
0
  6
CONTINUOUS
 62
     3
100
AcDbLine
 10
157.464604
 20
112.217871
 30
0.0
 11
157.474532
 21
112.155989
 31
0.0
  0
LINE
  5
4B6
330
49D
100
AcDbEntity
  8
0
  6
CONTINUOUS
 62
     3
100
AcDbLine
 10
157.474532
 20
112.155989
 30
0.0
 11
157.483715
 21
112.093939
 31
0.0
  0
LINE
  5
4B7
330
49D
100
AcDbEntity
  8
0
  6
CONTINUOUS
 62
     3
100
AcDbLine
 10
157.483715
 20
112.093939
 30
0.0
 11
157.492277
 21
112.03175
 31
0.0
  0
LINE
  5
4B8
330
49D
100
AcDbEntity
  8
0
  6
CONTINUOUS
 62
     3
100
AcDbLine
 10
157.492277
 20
112.03175
 30
0.0
 11
157.500343
 21
111.96945
 31
0.0
  0
LINE
  5
4B9
330
49D
100
AcDbEntity
  8
0
  6
CONTINUOUS
 62
     3
100
AcDbLine
 10
157.500343
 20
111.96945
 30
0.0
 11
157.508036
 21
111.907066
 31
0.0
  0
LINE
  5
4BA
330
49D
100
AcDbEntity
  8
0
  6
CONTINUOUS
 62
     3
100
AcDbLine
 10
157.508036
 20
111.907066
 30
0.0
 11
157.522801
 21
111.78216
 31
0.0
  0
ENDBLK
  5
49F
330
49D
100
AcDbEntity
  8
0
100
AcDbBlockEnd
  0
BLOCK
  5
4BD
330
4BC
100
AcDbEntity
  8
0
100
AcDbBlockBegin
  2
BLKF043
 70
     0
 71
     0
 10
0.0
 20
0.0
 30
0.0
  3
BLKF043
  1

  0
LINE
  5
4C0
330
4BC
100
AcDbEntity
  8
0
  6
CONTINUOUS
 62
     3
100
AcDbLine
 10
157.2528
 20
106.866897
 30
0.0
 11
157.28795
 21
106.863048
 31
0.0
  0
LINE
  5
4C1
330
4BC
100
AcDbEntity
  8
0
  6
CONTINUOUS
 62
     3
100
AcDbLine
 10
157.28795
 20
106.863048
 30
0.0
 11
157.32124
 21
106.859179
 31
0.0
  0
LINE
  5
4C2
330
4BC
100
AcDbEntity
  8
0
  6
CONTINUOUS
 62
     3
100
AcDbLine
 10
157.32124
 20
106.859179
 30
0.0
 11
157.34346
 21
106.856329
 31
0.0
  0
LINE
  5
4C3
330
4BC
100
AcDbEntity
  8
0
  6
CONTINUOUS
 62
     3
100
AcDbLine
 10
157.34346
 20
106.856329
 30
0.0
 11
157.363818
 21
106.853459
 31
0.0
  0
LINE
  5
4C4
330
4BC
100
AcDbEntity
  8
0
  6
CONTINUOUS
 62
     3
100
AcDbLine
 10
157.363818
 20
106.853459
 30
0.0
 11
157.382438
 21
106.85057
 31
0.0
  0
LINE
  5
4C5
330
4BC
100
AcDbEntity
  8
0
  6
CONTINUOUS
 62
     3
100
AcDbLine
 10
157.382438
 20
106.85057
 30
0.0
 11
157.399443
 21
106.847664
 31
0.0
  0
LINE
  5
4C6
330
4BC
100
AcDbEntity
  8
0
  6
CONTINUOUS
 62
     3
100
AcDbLine
 10
157.399443
 20
106.847664
 30
0.0
 11
157.414959
 21
106.844742
 31
0.0
  0
LINE
  5
4C7
330
4BC
100
AcDbEntity
  8
0
  6
CONTINUOUS
 62
     3
100
AcDbLine
 10
157.414959
 20
106.844742
 30
0.0
 11
157.429109
 21
106.841804
 31
0.0
  0
LINE
  5
4C8
330
4BC
100
AcDbEntity
  8
0
  6
CONTINUOUS
 62
     3
100
AcDbLine
 10
157.429109
 20
106.841804
 30
0.0
 11
157.453807
 21
106.835891
 31
0.0
  0
LINE
  5
4C9
330
4BC
100
AcDbEntity
  8
0
  6
CONTINUOUS
 62
     3
100
AcDbLine
 10
157.453807
 20
106.835891
 30
0.0
 11
157.474532
 21
106.829935
 31
0.0
  0
LINE
  5
4CA
330
4BC
100
AcDbEntity
  8
0
  6
CONTINUOUS
 62
     3
100
AcDbLine
 10
157.474532
 20
106.829935
 30
0.0
 11
157.492277
 21
106.823947
 31
0.0
  0
LINE
  5
4CB
330
4BC
100
AcDbEntity
  8
0
  6
CONTINUOUS
 62
     3
100
AcDbLine
 10
157.492277
 20
106.823947
 30
0.0
 11
157.508036
 21
106.817937
 31
0.0
  0
LINE
  5
4CC
330
4BC
100
AcDbEntity
  8
0
  6
CONTINUOUS
 62
     3
100
AcDbLine
 10
157.508036
 20
106.817937
 30
0.0
 11
157.522801
 21
106.811916
 31
0.0
  0
ENDBLK
  5
4BE
330
4BC
100
AcDbEntity
  8
0
100
AcDbBlockEnd
  0
BLOCK
  5
4D0
330
4CF
100
AcDbEntity
  8
0
100
AcDbBlockBegin
  2
BLKF044
 70
     0
 71
     0
 10
0.0
 20
0.0
 30
0.0
  3
BLKF044
  1

  0
LINE
  5
4D3
330
4CF
100
AcDbEntity
  8
0
  6
CONTINUOUS
 62
     3
100
AcDbLine
 10
157.2528
 20
113.341521
 30
0.0
 11
157.277511
 21
113.33823
 31
0.0
  0
LINE
  5
4D4
330
4CF
100
AcDbEntity
  8
0
  6
CONTINUOUS
 62
     3
100
AcDbLine
 10
157.277511
 20
113.33823
 30
0.0
 11
157.289808
 21
113.336585
 31
0.0
  0
LINE
  5
4D5
330
4CF
100
AcDbEntity
  8
0
  6
CONTINUOUS
 62
     3
100
AcDbLine
 10
157.289808
 20
113.336585
 30
0.0
 11
157.302037
 21
113.334939
 31
0.0
  0
LINE
  5
4D6
330
4CF
100
AcDbEntity
  8
0
  6
CONTINUOUS
 62
     3
100
AcDbLine
 10
157.302037
 20
113.334939
 30
0.0
 11
157.314173
 21
113.333293
 31
0.0
  0
LINE
  5
4D7
330
4CF
100
AcDbEntity
  8
0
  6
CONTINUOUS
 62
     3
100
AcDbLine
 10
157.314173
 20
113.333293
 30
0.0
 11
157.326193
 21
113.331646
 31
0.0
  0
LINE
  5
4D8
330
4CF
100
AcDbEntity
  8
0
  6
CONTINUOUS
 62
     3
100
AcDbLine
 10
157.326193
 20
113.331646
 30
0.0
 11
157.338075
 21
113.329999
 31
0.0
  0
LINE
  5
4D9
330
4CF
100
AcDbEntity
  8
0
  6
CONTINUOUS
 62
     3
100
AcDbLine
 10
157.338075
 20
113.329999
 30
0.0
 11
157.349795
 21
113.328351
 31
0.0
  0
LINE
  5
4DA
330
4CF
100
AcDbEntity
  8
0
  6
CONTINUOUS
 62
     3
100
AcDbLine
 10
157.349795
 20
113.328351
 30
0.0
 11
157.36133
 21
113.326702
 31
0.0
  0
LINE
  5
4DB
330
4CF
100
AcDbEntity
  8
0
  6
CONTINUOUS
 62
     3
100
AcDbLine
 10
157.36133
 20
113.326702
 30
0.0
 11
157.372657
 21
113.325052
 31
0.0
  0
LINE
  5
4DC
330
4CF
100
AcDbEntity
  8
0
  6
CONTINUOUS
 62
     3
100
AcDbLine
 10
157.372657
 20
113.325052
 30
0.0
 11
157.383754
 21
113.323402
 31
0.0
  0
LINE
  5
4DD
330
4CF
100
AcDbEntity
  8
0
  6
CONTINUOUS
 62
     3
100
AcDbLine
 10
157.383754
 20
113.323402
 30
0.0
 11
157.394596
 21
113.32175
 31
0.0
  0
LINE
  5
4DE
330
4CF
100
AcDbEntity
  8
0
  6
CONTINUOUS
 62
     3
100
AcDbLine
 10
157.394596
 20
113.32175
 30
0.0
 11
157.405161
 21
113.320097
 31
0.0
  0
LINE
  5
4DF
330
4CF
100
AcDbEntity
  8
0
  6
CONTINUOUS
 62
     3
100
AcDbLine
 10
157.405161
 20
113.320097
 30
0.0
 11
157.415426
 21
113.318443
 31
0.0
  0
LINE
  5
4E0
330
4CF
100
AcDbEntity
  8
0
  6
CONTINUOUS
 62
     3
100
AcDbLine
 10
157.415426
 20
113.318443
 30
0.0
 11
157.425367
 21
113.316787
 31
0.0
  0
LINE
  5
4E1
330
4CF
100
AcDbEntity
  8
0
  6
CONTINUOUS
 62
     3
100
AcDbLine
 10
157.425367
 20
113.316787
 30
0.0
 11
157.434962
 21
113.31513
 31
0.0
  0
LINE
  5
4E2
330
4CF
100
AcDbEntity
  8
0
  6
CONTINUOUS
 62
     3
100
AcDbLine
 10
157.434962
 20
113.31513
 30
0.0
 11
157.444187
 21
113.313471
 31
0.0
  0
LINE
  5
4E3
330
4CF
100
AcDbEntity
  8
0
  6
CONTINUOUS
 62
     3
100
AcDbLine
 10
157.444187
 20
113.313471
 30
0.0
 11
157.453019
 21
113.311811
 31
0.0
  0
LINE
  5
4E4
330
4CF
100
AcDbEntity
  8
0
  6
CONTINUOUS
 62
     3
100
AcDbLine
 10
157.453019
 20
113.311811
 30
0.0
 11
157.461436
 21
113.310148
 31
0.0
  0
LINE
  5
4E5
330
4CF
100
AcDbEntity
  8
0
  6
CONTINUOUS
 62
     3
100
AcDbLine
 10
157.461436
 20
113.310148
 30
0.0
 11
157.469414
 21
113.308484
 31
0.0
  0
LINE
  5
4E6
330
4CF
100
AcDbEntity
  8
0
  6
CONTINUOUS
 62
     3
100
AcDbLine
 10
157.469414
 20
113.308484
 30
0.0
 11
157.473231
 21
113.307652
 31
0.0
  0
LINE
  5
4E7
330
4CF
100
AcDbEntity
  8
0
  6
CONTINUOUS
 62
     3
100
AcDbLine
 10
157.473231
 20
113.307652
 30
0.0
 11
157.476929
 21
113.306818
 31
0.0
  0
LINE
  5
4E8
330
4CF
100
AcDbEntity
  8
0
  6
CONTINUOUS
 62
     3
100
AcDbLine
 10
157.476929
 20
113.306818
 30
0.0
 11
157.480507
 21
113.305985
 31
0.0
  0
LINE
  5
4E9
330
4CF
100
AcDbEntity
  8
0
  6
CONTINUOUS
 62
     3
100
AcDbLine
 10
157.480507
 20
113.305985
 30
0.0
 11
157.48396
 21
113.30515
 31
0.0
  0
LINE
  5
4EA
330
4CF
100
AcDbEntity
  8
0
  6
CONTINUOUS
 62
     3
100
AcDbLine
 10
157.48396
 20
113.30515
 30
0.0
 11
157.487286
 21
113.304315
 31
0.0
  0
LINE
  5
4EB
330
4CF
100
AcDbEntity
  8
0
  6
CONTINUOUS
 62
     3
100
AcDbLine
 10
157.487286
 20
113.304315
 30
0.0
 11
157.490482
 21
113.30348
 31
0.0
  0
LINE
  5
4EC
330
4CF
100
AcDbEntity
  8
0
  6
CONTINUOUS
 62
     3
100
AcDbLine
 10
157.490482
 20
113.30348
 30
0.0
 11
157.493546
 21
113.302644
 31
0.0
  0
LINE
  5
4ED
330
4CF
100
AcDbEntity
  8
0
  6
CONTINUOUS
 62
     3
100
AcDbLine
 10
157.493546
 20
113.302644
 30
0.0
 11
157.496473
 21
113.301807
 31
0.0
  0
LINE
  5
4EE
330
4CF
100
AcDbEntity
  8
0
  6
CONTINUOUS
 62
     3
100
AcDbLine
 10
157.496473
 20
113.301807
 30
0.0
 11
157.499262
 21
113.30097
 31
0.0
  0
LINE
  5
4EF
330
4CF
100
AcDbEntity
  8
0
  6
CONTINUOUS
 62
     3
100
AcDbLine
 10
157.499262
 20
113.30097
 30
0.0
 11
157.50191
 21
113.300132
 31
0.0
  0
LINE
  5
4F0
330
4CF
100
AcDbEntity
  8
0
  6
CONTINUOUS
 62
     3
100
AcDbLine
 10
157.50191
 20
113.300132
 30
0.0
 11
157.504413
 21
113.299294
 31
0.0
  0
LINE
  5
4F1
330
4CF
100
AcDbEntity
  8
0
  6
CONTINUOUS
 62
     3
100
AcDbLine
 10
157.504413
 20
113.299294
 30
0.0
 11
157.506769
 21
113.298455
 31
0.0
  0
LINE
  5
4F2
330
4CF
100
AcDbEntity
  8
0
  6
CONTINUOUS
 62
     3
100
AcDbLine
 10
157.506769
 20
113.298455
 30
0.0
 11
157.508975
 21
113.297615
 31
0.0
  0
LINE
  5
4F3
330
4CF
100
AcDbEntity
  8
0
  6
CONTINUOUS
 62
     3
100
AcDbLine
 10
157.508975
 20
113.297615
 30
0.0
 11
157.511027
 21
113.296775
 31
0.0
  0
LINE
  5
4F4
330
4CF
100
AcDbEntity
  8
0
  6
CONTINUOUS
 62
     3
100
AcDbLine
 10
157.511027
 20
113.296775
 30
0.0
 11
157.512924
 21
113.295934
 31
0.0
  0
LINE
  5
4F5
330
4CF
100
AcDbEntity
  8
0
  6
CONTINUOUS
 62
     3
100
AcDbLine
 10
157.512924
 20
113.295934
 30
0.0
 11
157.514662
 21
113.295092
 31
0.0
  0
LINE
  5
4F6
330
4CF
100
AcDbEntity
  8
0
  6
CONTINUOUS
 62
     3
100
AcDbLine
 10
157.514662
 20
113.295092
 30
0.0
 11
157.516239
 21
113.29425
 31
0.0
  0
LINE
  5
4F7
330
4CF
100
AcDbEntity
  8
0
  6
CONTINUOUS
 62
     3
100
AcDbLine
 10
157.516239
 20
113.29425
 30
0.0
 11
157.51765
 21
113.293406
 31
0.0
  0
LINE
  5
4F8
330
4CF
100
AcDbEntity
  8
0
  6
CONTINUOUS
 62
     3
100
AcDbLine
 10
157.51765
 20
113.293406
 30
0.0
 11
157.518894
 21
113.292563
 31
0.0
  0
LINE
  5
4F9
330
4CF
100
AcDbEntity
  8
0
  6
CONTINUOUS
 62
     3
100
AcDbLine
 10
157.518894
 20
113.292563
 30
0.0
 11
157.519968
 21
113.291718
 31
0.0
  0
LINE
  5
4FA
330
4CF
100
AcDbEntity
  8
0
  6
CONTINUOUS
 62
     3
100
AcDbLine
 10
157.519968
 20
113.291718
 30
0.0
 11
157.520869
 21
113.290873
 31
0.0
  0
LINE
  5
4FB
330
4CF
100
AcDbEntity
  8
0
  6
CONTINUOUS
 62
     3
100
AcDbLine
 10
157.520869
 20
113.290873
 30
0.0
 11
157.521593
 21
113.290027
 31
0.0
  0
LINE
  5
4FC
330
4CF
100
AcDbEntity
  8
0
  6
CONTINUOUS
 62
     3
100
AcDbLine
 10
157.521593
 20
113.290027
 30
0.0
 11
157.522139
 21
113.28918
 31
0.0
  0
LINE
  5
4FD
330
4CF
100
AcDbEntity
  8
0
  6
CONTINUOUS
 62
     3
100
AcDbLine
 10
157.522139
 20
113.28918
 30
0.0
 11
157.522502
 21
113.288332
 31
0.0
  0
LINE
  5
4FE
330
4CF
100
AcDbEntity
  8
0
  6
CONTINUOUS
 62
     3
100
AcDbLine
 10
157.522502
 20
113.288332
 30
0.0
 11
157.522801
 21
113.28654
 31
0.0
  0
ENDBLK
  5
4D1
330
4CF
100
AcDbEntity
  8
0
100
AcDbBlockEnd
  0
BLOCK
  5
504
330
503
100
AcDbEntity
  8
0
100
AcDbBlockBegin
  2
BLKF045
 70
     0
 71
     0
 10
0.0
 20
0.0
 30
0.0
  3
BLKF045
  1

  0
LINE
  5
507
330
503
100
AcDbEntity
  8
0
  6
CONTINUOUS
 62
     3
100
AcDbLine
 10
157.522801
 20
106.811916
 30
0.0
 11
157.522762
 21
106.811268
 31
0.0
  0
LINE
  5
508
330
503
100
AcDbEntity
  8
0
  6
CONTINUOUS
 62
     3
100
AcDbLine
 10
157.522762
 20
106.811268
 30
0.0
 11
157.522658
 21
106.81063
 31
0.0
  0
LINE
  5
509
330
503
100
AcDbEntity
  8
0
  6
CONTINUOUS
 62
     3
100
AcDbLine
 10
157.522658
 20
106.81063
 30
0.0
 11
157.522478
 21
106.809991
 31
0.0
  0
LINE
  5
50A
330
503
100
AcDbEntity
  8
0
  6
CONTINUOUS
 62
     3
100
AcDbLine
 10
157.522478
 20
106.809991
 30
0.0
 11
157.522222
 21
106.809353
 31
0.0
  0
LINE
  5
50B
330
503
100
AcDbEntity
  8
0
  6
CONTINUOUS
 62
     3
100
AcDbLine
 10
157.522222
 20
106.809353
 30
0.0
 11
157.521889
 21
106.808714
 31
0.0
  0
LINE
  5
50C
330
503
100
AcDbEntity
  8
0
  6
CONTINUOUS
 62
     3
100
AcDbLine
 10
157.521889
 20
106.808714
 30
0.0
 11
157.521479
 21
106.808075
 31
0.0
  0
LINE
  5
50D
330
503
100
AcDbEntity
  8
0
  6
CONTINUOUS
 62
     3
100
AcDbLine
 10
157.521479
 20
106.808075
 30
0.0
 11
157.520994
 21
106.807436
 31
0.0
  0
LINE
  5
50E
330
503
100
AcDbEntity
  8
0
  6
CONTINUOUS
 62
     3
100
AcDbLine
 10
157.520994
 20
106.807436
 30
0.0
 11
157.520433
 21
106.806798
 31
0.0
  0
LINE
  5
50F
330
503
100
AcDbEntity
  8
0
  6
CONTINUOUS
 62
     3
100
AcDbLine
 10
157.520433
 20
106.806798
 30
0.0
 11
157.519797
 21
106.806159
 31
0.0
  0
LINE
  5
510
330
503
100
AcDbEntity
  8
0
  6
CONTINUOUS
 62
     3
100
AcDbLine
 10
157.519797
 20
106.806159
 30
0.0
 11
157.519085
 21
106.80552
 31
0.0
  0
LINE
  5
511
330
503
100
AcDbEntity
  8
0
  6
CONTINUOUS
 62
     3
100
AcDbLine
 10
157.519085
 20
106.80552
 30
0.0
 11
157.518297
 21
106.804881
 31
0.0
  0
LINE
  5
512
330
503
100
AcDbEntity
  8
0
  6
CONTINUOUS
 62
     3
100
AcDbLine
 10
157.518297
 20
106.804881
 30
0.0
 11
157.517435
 21
106.804242
 31
0.0
  0
LINE
  5
513
330
503
100
AcDbEntity
  8
0
  6
CONTINUOUS
 62
     3
100
AcDbLine
 10
157.517435
 20
106.804242
 30
0.0
 11
157.516498
 21
106.803604
 31
0.0
  0
LINE
  5
514
330
503
100
AcDbEntity
  8
0
  6
CONTINUOUS
 62
     3
100
AcDbLine
 10
157.516498
 20
106.803604
 30
0.0
 11
157.515487
 21
106.802965
 31
0.0
  0
LINE
  5
515
330
503
100
AcDbEntity
  8
0
  6
CONTINUOUS
 62
     3
100
AcDbLine
 10
157.515487
 20
106.802965
 30
0.0
 11
157.514401
 21
106.802326
 31
0.0
  0
LINE
  5
516
330
503
100
AcDbEntity
  8
0
  6
CONTINUOUS
 62
     3
100
AcDbLine
 10
157.514401
 20
106.802326
 30
0.0
 11
157.513241
 21
106.801688
 31
0.0
  0
LINE
  5
517
330
503
100
AcDbEntity
  8
0
  6
CONTINUOUS
 62
     3
100
AcDbLine
 10
157.513241
 20
106.801688
 30
0.0
 11
157.512007
 21
106.80105
 31
0.0
  0
LINE
  5
518
330
503
100
AcDbEntity
  8
0
  6
CONTINUOUS
 62
     3
100
AcDbLine
 10
157.512007
 20
106.80105
 30
0.0
 11
157.5107
 21
106.800412
 31
0.0
  0
LINE
  5
519
330
503
100
AcDbEntity
  8
0
  6
CONTINUOUS
 62
     3
100
AcDbLine
 10
157.5107
 20
106.800412
 30
0.0
 11
157.509319
 21
106.799774
 31
0.0
  0
LINE
  5
51A
330
503
100
AcDbEntity
  8
0
  6
CONTINUOUS
 62
     3
100
AcDbLine
 10
157.509319
 20
106.799774
 30
0.0
 11
157.507864
 21
106.799136
 31
0.0
  0
LINE
  5
51B
330
503
100
AcDbEntity
  8
0
  6
CONTINUOUS
 62
     3
100
AcDbLine
 10
157.507864
 20
106.799136
 30
0.0
 11
157.506337
 21
106.798498
 31
0.0
  0
LINE
  5
51C
330
503
100
AcDbEntity
  8
0
  6
CONTINUOUS
 62
     3
100
AcDbLine
 10
157.506337
 20
106.798498
 30
0.0
 11
157.504736
 21
106.797861
 31
0.0
  0
LINE
  5
51D
330
503
100
AcDbEntity
  8
0
  6
CONTINUOUS
 62
     3
100
AcDbLine
 10
157.504736
 20
106.797861
 30
0.0
 11
157.503063
 21
106.797224
 31
0.0
  0
LINE
  5
51E
330
503
100
AcDbEntity
  8
0
  6
CONTINUOUS
 62
     3
100
AcDbLine
 10
157.503063
 20
106.797224
 30
0.0
 11
157.501317
 21
106.796587
 31
0.0
  0
LINE
  5
51F
330
503
100
AcDbEntity
  8
0
  6
CONTINUOUS
 62
     3
100
AcDbLine
 10
157.501317
 20
106.796587
 30
0.0
 11
157.499499
 21
106.79595
 31
0.0
  0
LINE
  5
520
330
503
100
AcDbEntity
  8
0
  6
CONTINUOUS
 62
     3
100
AcDbLine
 10
157.499499
 20
106.79595
 30
0.0
 11
157.497609
 21
106.795314
 31
0.0
  0
LINE
  5
521
330
503
100
AcDbEntity
  8
0
  6
CONTINUOUS
 62
     3
100
AcDbLine
 10
157.497609
 20
106.795314
 30
0.0
 11
157.495648
 21
106.794678
 31
0.0
  0
LINE
  5
522
330
503
100
AcDbEntity
  8
0
  6
CONTINUOUS
 62
     3
100
AcDbLine
 10
157.495648
 20
106.794678
 30
0.0
 11
157.493614
 21
106.794042
 31
0.0
  0
LINE
  5
523
330
503
100
AcDbEntity
  8
0
  6
CONTINUOUS
 62
     3
100
AcDbLine
 10
157.493614
 20
106.794042
 30
0.0
 11
157.491509
 21
106.793406
 31
0.0
  0
LINE
  5
524
330
503
100
AcDbEntity
  8
0
  6
CONTINUOUS
 62
     3
100
AcDbLine
 10
157.491509
 20
106.793406
 30
0.0
 11
157.489333
 21
106.792771
 31
0.0
  0
LINE
  5
525
330
503
100
AcDbEntity
  8
0
  6
CONTINUOUS
 62
     3
100
AcDbLine
 10
157.489333
 20
106.792771
 30
0.0
 11
157.487085
 21
106.792137
 31
0.0
  0
LINE
  5
526
330
503
100
AcDbEntity
  8
0
  6
CONTINUOUS
 62
     3
100
AcDbLine
 10
157.487085
 20
106.792137
 30
0.0
 11
157.484767
 21
106.791502
 31
0.0
  0
LINE
  5
527
330
503
100
AcDbEntity
  8
0
  6
CONTINUOUS
 62
     3
100
AcDbLine
 10
157.484767
 20
106.791502
 30
0.0
 11
157.482378
 21
106.790868
 31
0.0
  0
LINE
  5
528
330
503
100
AcDbEntity
  8
0
  6
CONTINUOUS
 62
     3
100
AcDbLine
 10
157.482378
 20
106.790868
 30
0.0
 11
157.479919
 21
106.790235
 31
0.0
  0
LINE
  5
529
330
503
100
AcDbEntity
  8
0
  6
CONTINUOUS
 62
     3
100
AcDbLine
 10
157.479919
 20
106.790235
 30
0.0
 11
157.47739
 21
106.789602
 31
0.0
  0
LINE
  5
52A
330
503
100
AcDbEntity
  8
0
  6
CONTINUOUS
 62
     3
100
AcDbLine
 10
157.47739
 20
106.789602
 30
0.0
 11
157.47479
 21
106.788969
 31
0.0
  0
LINE
  5
52B
330
503
100
AcDbEntity
  8
0
  6
CONTINUOUS
 62
     3
100
AcDbLine
 10
157.47479
 20
106.788969
 30
0.0
 11
157.472121
 21
106.788337
 31
0.0
  0
LINE
  5
52C
330
503
100
AcDbEntity
  8
0
  6
CONTINUOUS
 62
     3
100
AcDbLine
 10
157.472121
 20
106.788337
 30
0.0
 11
157.469382
 21
106.787705
 31
0.0
  0
LINE
  5
52D
330
503
100
AcDbEntity
  8
0
  6
CONTINUOUS
 62
     3
100
AcDbLine
 10
157.469382
 20
106.787705
 30
0.0
 11
157.466574
 21
106.787074
 31
0.0
  0
LINE
  5
52E
330
503
100
AcDbEntity
  8
0
  6
CONTINUOUS
 62
     3
100
AcDbLine
 10
157.466574
 20
106.787074
 30
0.0
 11
157.463696
 21
106.786444
 31
0.0
  0
LINE
  5
52F
330
503
100
AcDbEntity
  8
0
  6
CONTINUOUS
 62
     3
100
AcDbLine
 10
157.463696
 20
106.786444
 30
0.0
 11
157.46075
 21
106.785813
 31
0.0
  0
LINE
  5
530
330
503
100
AcDbEntity
  8
0
  6
CONTINUOUS
 62
     3
100
AcDbLine
 10
157.46075
 20
106.785813
 30
0.0
 11
157.457734
 21
106.785184
 31
0.0
  0
LINE
  5
531
330
503
100
AcDbEntity
  8
0
  6
CONTINUOUS
 62
     3
100
AcDbLine
 10
157.457734
 20
106.785184
 30
0.0
 11
157.454651
 21
106.784555
 31
0.0
  0
LINE
  5
532
330
503
100
AcDbEntity
  8
0
  6
CONTINUOUS
 62
     3
100
AcDbLine
 10
157.454651
 20
106.784555
 30
0.0
 11
157.451498
 21
106.783927
 31
0.0
  0
LINE
  5
533
330
503
100
AcDbEntity
  8
0
  6
CONTINUOUS
 62
     3
100
AcDbLine
 10
157.451498
 20
106.783927
 30
0.0
 11
157.448278
 21
106.783299
 31
0.0
  0
LINE
  5
534
330
503
100
AcDbEntity
  8
0
  6
CONTINUOUS
 62
     3
100
AcDbLine
 10
157.448278
 20
106.783299
 30
0.0
 11
157.44499
 21
106.782672
 31
0.0
  0
LINE
  5
535
330
503
100
AcDbEntity
  8
0
  6
CONTINUOUS
 62
     3
100
AcDbLine
 10
157.44499
 20
106.782672
 30
0.0
 11
157.441634
 21
106.782045
 31
0.0
  0
LINE
  5
536
330
503
100
AcDbEntity
  8
0
  6
CONTINUOUS
 62
     3
100
AcDbLine
 10
157.441634
 20
106.782045
 30
0.0
 11
157.43821
 21
106.781419
 31
0.0
  0
LINE
  5
537
330
503
100
AcDbEntity
  8
0
  6
CONTINUOUS
 62
     3
100
AcDbLine
 10
157.43821
 20
106.781419
 30
0.0
 11
157.434719
 21
106.780794
 31
0.0
  0
LINE
  5
538
330
503
100
AcDbEntity
  8
0
  6
CONTINUOUS
 62
     3
100
AcDbLine
 10
157.434719
 20
106.780794
 30
0.0
 11
157.431161
 21
106.78017
 31
0.0
  0
LINE
  5
539
330
503
100
AcDbEntity
  8
0
  6
CONTINUOUS
 62
     3
100
AcDbLine
 10
157.431161
 20
106.78017
 30
0.0
 11
157.427536
 21
106.779546
 31
0.0
  0
LINE
  5
53A
330
503
100
AcDbEntity
  8
0
  6
CONTINUOUS
 62
     3
100
AcDbLine
 10
157.427536
 20
106.779546
 30
0.0
 11
157.423844
 21
106.778923
 31
0.0
  0
LINE
  5
53B
330
503
100
AcDbEntity
  8
0
  6
CONTINUOUS
 62
     3
100
AcDbLine
 10
157.423844
 20
106.778923
 30
0.0
 11
157.420086
 21
106.778301
 31
0.0
  0
LINE
  5
53C
330
503
100
AcDbEntity
  8
0
  6
CONTINUOUS
 62
     3
100
AcDbLine
 10
157.420086
 20
106.778301
 30
0.0
 11
157.416261
 21
106.777679
 31
0.0
  0
LINE
  5
53D
330
503
100
AcDbEntity
  8
0
  6
CONTINUOUS
 62
     3
100
AcDbLine
 10
157.416261
 20
106.777679
 30
0.0
 11
157.412371
 21
106.777059
 31
0.0
  0
LINE
  5
53E
330
503
100
AcDbEntity
  8
0
  6
CONTINUOUS
 62
     3
100
AcDbLine
 10
157.412371
 20
106.777059
 30
0.0
 11
157.408414
 21
106.776439
 31
0.0
  0
LINE
  5
53F
330
503
100
AcDbEntity
  8
0
  6
CONTINUOUS
 62
     3
100
AcDbLine
 10
157.408414
 20
106.776439
 30
0.0
 11
157.404392
 21
106.77582
 31
0.0
  0
LINE
  5
540
330
503
100
AcDbEntity
  8
0
  6
CONTINUOUS
 62
     3
100
AcDbLine
 10
157.404392
 20
106.77582
 30
0.0
 11
157.400304
 21
106.775201
 31
0.0
  0
LINE
  5
541
330
503
100
AcDbEntity
  8
0
  6
CONTINUOUS
 62
     3
100
AcDbLine
 10
157.400304
 20
106.775201
 30
0.0
 11
157.396151
 21
106.774584
 31
0.0
  0
LINE
  5
542
330
503
100
AcDbEntity
  8
0
  6
CONTINUOUS
 62
     3
100
AcDbLine
 10
157.396151
 20
106.774584
 30
0.0
 11
157.391933
 21
106.773967
 31
0.0
  0
LINE
  5
543
330
503
100
AcDbEntity
  8
0
  6
CONTINUOUS
 62
     3
100
AcDbLine
 10
157.391933
 20
106.773967
 30
0.0
 11
157.38765
 21
106.773352
 31
0.0
  0
LINE
  5
544
330
503
100
AcDbEntity
  8
0
  6
CONTINUOUS
 62
     3
100
AcDbLine
 10
157.38765
 20
106.773352
 30
0.0
 11
157.383302
 21
106.772737
 31
0.0
  0
LINE
  5
545
330
503
100
AcDbEntity
  8
0
  6
CONTINUOUS
 62
     3
100
AcDbLine
 10
157.383302
 20
106.772737
 30
0.0
 11
157.37889
 21
106.772123
 31
0.0
  0
LINE
  5
546
330
503
100
AcDbEntity
  8
0
  6
CONTINUOUS
 62
     3
100
AcDbLine
 10
157.37889
 20
106.772123
 30
0.0
 11
157.374414
 21
106.77151
 31
0.0
  0
LINE
  5
547
330
503
100
AcDbEntity
  8
0
  6
CONTINUOUS
 62
     3
100
AcDbLine
 10
157.374414
 20
106.77151
 30
0.0
 11
157.369874
 21
106.770898
 31
0.0
  0
LINE
  5
548
330
503
100
AcDbEntity
  8
0
  6
CONTINUOUS
 62
     3
100
AcDbLine
 10
157.369874
 20
106.770898
 30
0.0
 11
157.363202
 21
106.770016
 31
0.0
  0
LINE
  5
549
330
503
100
AcDbEntity
  8
0
  6
CONTINUOUS
 62
     3
100
AcDbLine
 10
157.363202
 20
106.770016
 30
0.0
 11
157.356405
 21
106.769135
 31
0.0
  0
LINE
  5
54A
330
503
100
AcDbEntity
  8
0
  6
CONTINUOUS
 62
     3
100
AcDbLine
 10
157.356405
 20
106.769135
 30
0.0
 11
157.349492
 21
106.768256
 31
0.0
  0
LINE
  5
54B
330
503
100
AcDbEntity
  8
0
  6
CONTINUOUS
 62
     3
100
AcDbLine
 10
157.349492
 20
106.768256
 30
0.0
 11
157.342471
 21
106.767379
 31
0.0
  0
LINE
  5
54C
330
503
100
AcDbEntity
  8
0
  6
CONTINUOUS
 62
     3
100
AcDbLine
 10
157.342471
 20
106.767379
 30
0.0
 11
157.33535
 21
106.766503
 31
0.0
  0
LINE
  5
54D
330
503
100
AcDbEntity
  8
0
  6
CONTINUOUS
 62
     3
100
AcDbLine
 10
157.33535
 20
106.766503
 30
0.0
 11
157.328137
 21
106.765629
 31
0.0
  0
LINE
  5
54E
330
503
100
AcDbEntity
  8
0
  6
CONTINUOUS
 62
     3
100
AcDbLine
 10
157.328137
 20
106.765629
 30
0.0
 11
157.32084
 21
106.764756
 31
0.0
  0
LINE
  5
54F
330
503
100
AcDbEntity
  8
0
  6
CONTINUOUS
 62
     3
100
AcDbLine
 10
157.32084
 20
106.764756
 30
0.0
 11
157.313469
 21
106.763884
 31
0.0
  0
LINE
  5
550
330
503
100
AcDbEntity
  8
0
  6
CONTINUOUS
 62
     3
100
AcDbLine
 10
157.313469
 20
106.763884
 30
0.0
 11
157.306031
 21
106.763013
 31
0.0
  0
LINE
  5
551
330
503
100
AcDbEntity
  8
0
  6
CONTINUOUS
 62
     3
100
AcDbLine
 10
157.306031
 20
106.763013
 30
0.0
 11
157.298535
 21
106.762144
 31
0.0
  0
LINE
  5
552
330
503
100
AcDbEntity
  8
0
  6
CONTINUOUS
 62
     3
100
AcDbLine
 10
157.298535
 20
106.762144
 30
0.0
 11
157.290989
 21
106.761274
 31
0.0
  0
LINE
  5
553
330
503
100
AcDbEntity
  8
0
  6
CONTINUOUS
 62
     3
100
AcDbLine
 10
157.290989
 20
106.761274
 30
0.0
 11
157.283401
 21
106.760406
 31
0.0
  0
LINE
  5
554
330
503
100
AcDbEntity
  8
0
  6
CONTINUOUS
 62
     3
100
AcDbLine
 10
157.283401
 20
106.760406
 30
0.0
 11
157.268134
 21
106.75867
 31
0.0
  0
LINE
  5
555
330
503
100
AcDbEntity
  8
0
  6
CONTINUOUS
 62
     3
100
AcDbLine
 10
157.268134
 20
106.75867
 30
0.0
 11
157.2528
 21
106.756935
 31
0.0
  0
ENDBLK
  5
505
330
503
100
AcDbEntity
  8
0
100
AcDbBlockEnd
  0
BLOCK
  5
5EA
330
5E9
100
AcDbEntity
  8
0
100
AcDbBlockBegin
  2
BLKF046
 70
     0
 71
     0
 10
0.0
 20
0.0
 30
0.0
  3
BLKF046
  1

  0
LINE
  5
5ED
330
5E9
100
AcDbEntity
  8
CSLAYER2
  6
CONTINUOUS
 62
     3
100
AcDbLine
 10
187.045313
 20
109.037709
 30
0.0
 11
187.025692
 21
109.040009
 31
0.0
  0
LINE
  5
5EE
330
5E9
100
AcDbEntity
  8
CSLAYER2
  6
CONTINUOUS
 62
     3
100
AcDbLine
 10
187.025692
 20
109.040009
 30
0.0
 11
187.00622
 21
109.046891
 31
0.0
  0
LINE
  5
5EF
330
5E9
100
AcDbEntity
  8
CSLAYER2
  6
CONTINUOUS
 62
     3
100
AcDbLine
 10
187.00622
 20
109.046891
 30
0.0
 11
186.987045
 21
109.058303
 31
0.0
  0
LINE
  5
5F0
330
5E9
100
AcDbEntity
  8
CSLAYER2
  6
CONTINUOUS
 62
     3
100
AcDbLine
 10
186.987045
 20
109.058303
 30
0.0
 11
186.968314
 21
109.074158
 31
0.0
  0
LINE
  5
5F1
330
5E9
100
AcDbEntity
  8
CSLAYER2
  6
CONTINUOUS
 62
     3
100
AcDbLine
 10
186.968314
 20
109.074158
 30
0.0
 11
186.950169
 21
109.094336
 31
0.0
  0
LINE
  5
5F2
330
5E9
100
AcDbEntity
  8
CSLAYER2
  6
CONTINUOUS
 62
     3
100
AcDbLine
 10
186.950169
 20
109.094336
 30
0.0
 11
186.932748
 21
109.118682
 31
0.0
  0
LINE
  5
5F3
330
5E9
100
AcDbEntity
  8
CSLAYER2
  6
CONTINUOUS
 62
     3
100
AcDbLine
 10
186.932748
 20
109.118682
 30
0.0
 11
186.916184
 21
109.147013
 31
0.0
  0
LINE
  5
5F4
330
5E9
100
AcDbEntity
  8
CSLAYER2
  6
CONTINUOUS
 62
     3
100
AcDbLine
 10
186.916184
 20
109.147013
 30
0.0
 11
186.900602
 21
109.17911
 31
0.0
  0
LINE
  5
5F5
330
5E9
100
AcDbEntity
  8
CSLAYER2
  6
CONTINUOUS
 62
     3
100
AcDbLine
 10
186.900602
 20
109.17911
 30
0.0
 11
186.886122
 21
109.214732
 31
0.0
  0
LINE
  5
5F6
330
5E9
100
AcDbEntity
  8
CSLAYER2
  6
CONTINUOUS
 62
     3
100
AcDbLine
 10
186.886122
 20
109.214732
 30
0.0
 11
186.872853
 21
109.253606
 31
0.0
  0
LINE
  5
5F7
330
5E9
100
AcDbEntity
  8
CSLAYER2
  6
CONTINUOUS
 62
     3
100
AcDbLine
 10
186.872853
 20
109.253606
 30
0.0
 11
186.860897
 21
109.295438
 31
0.0
  0
LINE
  5
5F8
330
5E9
100
AcDbEntity
  8
CSLAYER2
  6
CONTINUOUS
 62
     3
100
AcDbLine
 10
186.860897
 20
109.295438
 30
0.0
 11
186.850345
 21
109.339907
 31
0.0
  0
LINE
  5
5F9
330
5E9
100
AcDbEntity
  8
CSLAYER2
  6
CONTINUOUS
 62
     3
100
AcDbLine
 10
186.850345
 20
109.339907
 30
0.0
 11
186.841276
 21
109.386676
 31
0.0
  0
LINE
  5
5FA
330
5E9
100
AcDbEntity
  8
CSLAYER2
  6
CONTINUOUS
 62
     3
100
AcDbLine
 10
186.841276
 20
109.386676
 30
0.0
 11
186.83376
 21
109.43539
 31
0.0
  0
LINE
  5
5FB
330
5E9
100
AcDbEntity
  8
CSLAYER2
  6
CONTINUOUS
 62
     3
100
AcDbLine
 10
186.83376
 20
109.43539
 30
0.0
 11
186.827854
 21
109.485676
 31
0.0
  0
LINE
  5
5FC
330
5E9
100
AcDbEntity
  8
CSLAYER2
  6
CONTINUOUS
 62
     3
100
AcDbLine
 10
186.827854
 20
109.485676
 30
0.0
 11
186.823604
 21
109.537153
 31
0.0
  0
LINE
  5
5FD
330
5E9
100
AcDbEntity
  8
CSLAYER2
  6
CONTINUOUS
 62
     3
100
AcDbLine
 10
186.823604
 20
109.537153
 30
0.0
 11
186.82104
 21
109.589429
 31
0.0
  0
ENDBLK
  5
5EB
330
5E9
100
AcDbEntity
  8
0
100
AcDbBlockEnd
  0
BLOCK
  5
603
330
602
100
AcDbEntity
  8
0
100
AcDbBlockBegin
  2
BLKF047
 70
     0
 71
     0
 10
0.0
 20
0.0
 30
0.0
  3
BLKF047
  1

  0
LINE
  5
606
330
602
100
AcDbEntity
  8
CSLAYER2
  6
CONTINUOUS
 62
     3
100
AcDbLine
 10
201.025872
 20
109.217698
 30
0.0
 11
201.006251
 21
109.222312
 31
0.0
  0
LINE
  5
607
330
602
100
AcDbEntity
  8
CSLAYER2
  6
CONTINUOUS
 62
     3
100
AcDbLine
 10
201.006251
 20
109.222312
 30
0.0
 11
200.986779
 21
109.236117
 31
0.0
  0
LINE
  5
608
330
602
100
AcDbEntity
  8
CSLAYER2
  6
CONTINUOUS
 62
     3
100
AcDbLine
 10
200.986779
 20
109.236117
 30
0.0
 11
200.967604
 21
109.259009
 31
0.0
  0
LINE
  5
609
330
602
100
AcDbEntity
  8
CSLAYER2
  6
CONTINUOUS
 62
     3
100
AcDbLine
 10
200.967604
 20
109.259009
 30
0.0
 11
200.948874
 21
109.290813
 31
0.0
  0
LINE
  5
60A
330
602
100
AcDbEntity
  8
CSLAYER2
  6
CONTINUOUS
 62
     3
100
AcDbLine
 10
200.948874
 20
109.290813
 30
0.0
 11
200.930728
 21
109.331287
 31
0.0
  0
LINE
  5
60B
330
602
100
AcDbEntity
  8
CSLAYER2
  6
CONTINUOUS
 62
     3
100
AcDbLine
 10
200.930728
 20
109.331287
 30
0.0
 11
200.913308
 21
109.380124
 31
0.0
  0
LINE
  5
60C
330
602
100
AcDbEntity
  8
CSLAYER2
  6
CONTINUOUS
 62
     3
100
AcDbLine
 10
200.913308
 20
109.380124
 30
0.0
 11
200.896744
 21
109.436951
 31
0.0
  0
LINE
  5
60D
330
602
100
AcDbEntity
  8
CSLAYER2
  6
CONTINUOUS
 62
     3
100
AcDbLine
 10
200.896744
 20
109.436951
 30
0.0
 11
200.881162
 21
109.501337
 31
0.0
  0
LINE
  5
60E
330
602
100
AcDbEntity
  8
CSLAYER2
  6
CONTINUOUS
 62
     3
100
AcDbLine
 10
200.881162
 20
109.501337
 30
0.0
 11
200.866682
 21
109.57279
 31
0.0
  0
LINE
  5
60F
330
602
100
AcDbEntity
  8
CSLAYER2
  6
CONTINUOUS
 62
     3
100
AcDbLine
 10
200.866682
 20
109.57279
 30
0.0
 11
200.853413
 21
109.650769
 31
0.0
  0
LINE
  5
610
330
602
100
AcDbEntity
  8
CSLAYER2
  6
CONTINUOUS
 62
     3
100
AcDbLine
 10
200.853413
 20
109.650769
 30
0.0
 11
200.841457
 21
109.734678
 31
0.0
  0
LINE
  5
611
330
602
100
AcDbEntity
  8
CSLAYER2
  6
CONTINUOUS
 62
     3
100
AcDbLine
 10
200.841457
 20
109.734678
 30
0.0
 11
200.830904
 21
109.823879
 31
0.0
  0
LINE
  5
612
330
602
100
AcDbEntity
  8
CSLAYER2
  6
CONTINUOUS
 62
     3
100
AcDbLine
 10
200.830904
 20
109.823879
 30
0.0
 11
200.821836
 21
109.917694
 31
0.0
  0
LINE
  5
613
330
602
100
AcDbEntity
  8
CSLAYER2
  6
CONTINUOUS
 62
     3
100
AcDbLine
 10
200.821836
 20
109.917694
 30
0.0
 11
200.81432
 21
110.015407
 31
0.0
  0
LINE
  5
614
330
602
100
AcDbEntity
  8
CSLAYER2
  6
CONTINUOUS
 62
     3
100
AcDbLine
 10
200.81432
 20
110.015407
 30
0.0
 11
200.808414
 21
110.116278
 31
0.0
  0
LINE
  5
615
330
602
100
AcDbEntity
  8
CSLAYER2
  6
CONTINUOUS
 62
     3
100
AcDbLine
 10
200.808414
 20
110.116278
 30
0.0
 11
200.804164
 21
110.219535
 31
0.0
  0
LINE
  5
616
330
602
100
AcDbEntity
  8
CSLAYER2
  6
CONTINUOUS
 62
     3
100
AcDbLine
 10
200.804164
 20
110.219535
 30
0.0
 11
200.8016
 21
110.324395
 31
0.0
  0
LINE
  5
617
330
602
100
AcDbEntity
  8
CSLAYER2
  6
CONTINUOUS
 62
     3
100
AcDbLine
 10
200.8016
 20
110.324395
 30
0.0
 11
200.800743
 21
110.430059
 31
0.0
  0
ENDBLK
  5
604
330
602
100
AcDbEntity
  8
0
100
AcDbBlockEnd
  0
BLOCK
  5
619
330
618
100
AcDbEntity
  8
0
100
AcDbBlockBegin
  2
BLKF048
 70
     0
 71
     0
 10
0.0
 20
0.0
 30
0.0
  3
BLKF048
  1

  0
LINE
  5
61C
330
618
100
AcDbEntity
  8
CSLAYER2
  6
CONTINUOUS
 62
     3
100
AcDbLine
 10
203.097067
 20
110.430059
 30
0.0
 11
203.09621
 21
110.324395
 31
0.0
  0
LINE
  5
61D
330
618
100
AcDbEntity
  8
CSLAYER2
  6
CONTINUOUS
 62
     3
100
AcDbLine
 10
203.09621
 20
110.324395
 30
0.0
 11
203.093647
 21
110.219535
 31
0.0
  0
LINE
  5
61E
330
618
100
AcDbEntity
  8
CSLAYER2
  6
CONTINUOUS
 62
     3
100
AcDbLine
 10
203.093647
 20
110.219535
 30
0.0
 11
203.089396
 21
110.116278
 31
0.0
  0
LINE
  5
61F
330
618
100
AcDbEntity
  8
CSLAYER2
  6
CONTINUOUS
 62
     3
100
AcDbLine
 10
203.089396
 20
110.116278
 30
0.0
 11
203.08349
 21
110.015407
 31
0.0
  0
LINE
  5
620
330
618
100
AcDbEntity
  8
CSLAYER2
  6
CONTINUOUS
 62
     3
100
AcDbLine
 10
203.08349
 20
110.015407
 30
0.0
 11
203.075974
 21
109.917694
 31
0.0
  0
LINE
  5
621
330
618
100
AcDbEntity
  8
CSLAYER2
  6
CONTINUOUS
 62
     3
100
AcDbLine
 10
203.075974
 20
109.917694
 30
0.0
 11
203.066905
 21
109.823879
 31
0.0
  0
LINE
  5
622
330
618
100
AcDbEntity
  8
CSLAYER2
  6
CONTINUOUS
 62
     3
100
AcDbLine
 10
203.066905
 20
109.823879
 30
0.0
 11
203.056352
 21
109.734678
 31
0.0
  0
LINE
  5
623
330
618
100
AcDbEntity
  8
CSLAYER2
  6
CONTINUOUS
 62
     3
100
AcDbLine
 10
203.056352
 20
109.734678
 30
0.0
 11
203.044396
 21
109.650769
 31
0.0
  0
LINE
  5
624
330
618
100
AcDbEntity
  8
CSLAYER2
  6
CONTINUOUS
 62
     3
100
AcDbLine
 10
203.044396
 20
109.650769
 30
0.0
 11
203.031128
 21
109.57279
 31
0.0
  0
LINE
  5
625
330
618
100
AcDbEntity
  8
CSLAYER2
  6
CONTINUOUS
 62
     3
100
AcDbLine
 10
203.031128
 20
109.57279
 30
0.0
 11
203.016648
 21
109.501337
 31
0.0
  0
LINE
  5
626
330
618
100
AcDbEntity
  8
CSLAYER2
  6
CONTINUOUS
 62
     3
100
AcDbLine
 10
203.016648
 20
109.501337
 30
0.0
 11
203.001066
 21
109.436951
 31
0.0
  0
LINE
  5
627
330
618
100
AcDbEntity
  8
CSLAYER2
  6
CONTINUOUS
 62
     3
100
AcDbLine
 10
203.001066
 20
109.436951
 30
0.0
 11
202.984502
 21
109.380124
 31
0.0
  0
LINE
  5
628
330
618
100
AcDbEntity
  8
CSLAYER2
  6
CONTINUOUS
 62
     3
100
AcDbLine
 10
202.984502
 20
109.380124
 30
0.0
 11
202.967081
 21
109.331287
 31
0.0
  0
LINE
  5
629
330
618
100
AcDbEntity
  8
CSLAYER2
  6
CONTINUOUS
 62
     3
100
AcDbLine
 10
202.967081
 20
109.331287
 30
0.0
 11
202.948936
 21
109.290813
 31
0.0
  0
LINE
  5
62A
330
618
100
AcDbEntity
  8
CSLAYER2
  6
CONTINUOUS
 62
     3
100
AcDbLine
 10
202.948936
 20
109.290813
 30
0.0
 11
202.930205
 21
109.259009
 31
0.0
  0
LINE
  5
62B
330
618
100
AcDbEntity
  8
CSLAYER2
  6
CONTINUOUS
 62
     3
100
AcDbLine
 10
202.930205
 20
109.259009
 30
0.0
 11
202.911031
 21
109.236117
 31
0.0
  0
LINE
  5
62C
330
618
100
AcDbEntity
  8
CSLAYER2
  6
CONTINUOUS
 62
     3
100
AcDbLine
 10
202.911031
 20
109.236117
 30
0.0
 11
202.891559
 21
109.222312
 31
0.0
  0
LINE
  5
62D
330
618
100
AcDbEntity
  8
CSLAYER2
  6
CONTINUOUS
 62
     3
100
AcDbLine
 10
202.891559
 20
109.222312
 30
0.0
 11
202.871937
 21
109.217698
 31
0.0
  0
ENDBLK
  5
61A
330
618
100
AcDbEntity
  8
0
100
AcDbBlockEnd
  0
BLOCK
  5
657
330
656
100
AcDbEntity
  8
0
100
AcDbBlockBegin
  2
BLKF049
 70
     0
 71
     0
 10
0.0
 20
0.0
 30
0.0
  3
BLKF049
  1

  0
LINE
  5
65A
330
656
100
AcDbEntity
  8
CSLAYER2
  6
CONTINUOUS
 62
     3
100
AcDbLine
 10
186.820184
 20
111.218014
 30
0.0
 11
186.82104
 21
111.27069
 31
0.0
  0
LINE
  5
65B
330
656
100
AcDbEntity
  8
CSLAYER2
  6
CONTINUOUS
 62
     3
100
AcDbLine
 10
186.82104
 20
111.27069
 30
0.0
 11
186.823604
 21
111.322966
 31
0.0
  0
LINE
  5
65C
330
656
100
AcDbEntity
  8
CSLAYER2
  6
CONTINUOUS
 62
     3
100
AcDbLine
 10
186.823604
 20
111.322966
 30
0.0
 11
186.827854
 21
111.374443
 31
0.0
  0
LINE
  5
65D
330
656
100
AcDbEntity
  8
CSLAYER2
  6
CONTINUOUS
 62
     3
100
AcDbLine
 10
186.827854
 20
111.374443
 30
0.0
 11
186.83376
 21
111.42473
 31
0.0
  0
LINE
  5
65E
330
656
100
AcDbEntity
  8
CSLAYER2
  6
CONTINUOUS
 62
     3
100
AcDbLine
 10
186.83376
 20
111.42473
 30
0.0
 11
186.841276
 21
111.473442
 31
0.0
  0
LINE
  5
65F
330
656
100
AcDbEntity
  8
CSLAYER2
  6
CONTINUOUS
 62
     3
100
AcDbLine
 10
186.841276
 20
111.473442
 30
0.0
 11
186.850345
 21
111.520212
 31
0.0
  0
LINE
  5
660
330
656
100
AcDbEntity
  8
CSLAYER2
  6
CONTINUOUS
 62
     3
100
AcDbLine
 10
186.850345
 20
111.520212
 30
0.0
 11
186.860897
 21
111.564682
 31
0.0
  0
LINE
  5
661
330
656
100
AcDbEntity
  8
CSLAYER2
  6
CONTINUOUS
 62
     3
100
AcDbLine
 10
186.860897
 20
111.564682
 30
0.0
 11
186.872853
 21
111.606512
 31
0.0
  0
LINE
  5
662
330
656
100
AcDbEntity
  8
CSLAYER2
  6
CONTINUOUS
 62
     3
100
AcDbLine
 10
186.872853
 20
111.606512
 30
0.0
 11
186.886122
 21
111.645386
 31
0.0
  0
LINE
  5
663
330
656
100
AcDbEntity
  8
CSLAYER2
  6
CONTINUOUS
 62
     3
100
AcDbLine
 10
186.886122
 20
111.645386
 30
0.0
 11
186.900602
 21
111.681008
 31
0.0
  0
LINE
  5
664
330
656
100
AcDbEntity
  8
CSLAYER2
  6
CONTINUOUS
 62
     3
100
AcDbLine
 10
186.900602
 20
111.681008
 30
0.0
 11
186.916184
 21
111.713106
 31
0.0
  0
LINE
  5
665
330
656
100
AcDbEntity
  8
CSLAYER2
  6
CONTINUOUS
 62
     3
100
AcDbLine
 10
186.916184
 20
111.713106
 30
0.0
 11
186.932748
 21
111.741437
 31
0.0
  0
LINE
  5
666
330
656
100
AcDbEntity
  8
CSLAYER2
  6
CONTINUOUS
 62
     3
100
AcDbLine
 10
186.932748
 20
111.741437
 30
0.0
 11
186.950169
 21
111.765783
 31
0.0
  0
LINE
  5
667
330
656
100
AcDbEntity
  8
CSLAYER2
  6
CONTINUOUS
 62
     3
100
AcDbLine
 10
186.950169
 20
111.765783
 30
0.0
 11
186.968314
 21
111.785961
 31
0.0
  0
LINE
  5
668
330
656
100
AcDbEntity
  8
CSLAYER2
  6
CONTINUOUS
 62
     3
100
AcDbLine
 10
186.968314
 20
111.785961
 30
0.0
 11
186.987045
 21
111.801816
 31
0.0
  0
LINE
  5
669
330
656
100
AcDbEntity
  8
CSLAYER2
  6
CONTINUOUS
 62
     3
100
AcDbLine
 10
186.987045
 20
111.801816
 30
0.0
 11
187.00622
 21
111.813228
 31
0.0
  0
LINE
  5
66A
330
656
100
AcDbEntity
  8
CSLAYER2
  6
CONTINUOUS
 62
     3
100
AcDbLine
 10
187.00622
 20
111.813228
 30
0.0
 11
187.025692
 21
111.82011
 31
0.0
  0
ENDBLK
  5
658
330
656
100
AcDbEntity
  8
0
100
AcDbBlockEnd
  0
BLOCK
  5
670
330
66F
100
AcDbEntity
  8
0
100
AcDbBlockBegin
  2
BLKF050
 70
     0
 71
     0
 10
0.0
 20
0.0
 30
0.0
  3
BLKF050
  1

  0
LINE
  5
673
330
66F
100
AcDbEntity
  8
CSLAYER2
  6
CONTINUOUS
 62
     3
100
AcDbLine
 10
200.800743
 20
110.430059
 30
0.0
 11
200.8016
 21
110.535724
 31
0.0
  0
LINE
  5
674
330
66F
100
AcDbEntity
  8
CSLAYER2
  6
CONTINUOUS
 62
     3
100
AcDbLine
 10
200.8016
 20
110.535724
 30
0.0
 11
200.804164
 21
110.640584
 31
0.0
  0
LINE
  5
675
330
66F
100
AcDbEntity
  8
CSLAYER2
  6
CONTINUOUS
 62
     3
100
AcDbLine
 10
200.804164
 20
110.640584
 30
0.0
 11
200.808414
 21
110.743842
 31
0.0
  0
LINE
  5
676
330
66F
100
AcDbEntity
  8
CSLAYER2
  6
CONTINUOUS
 62
     3
100
AcDbLine
 10
200.808414
 20
110.743842
 30
0.0
 11
200.81432
 21
110.844711
 31
0.0
  0
LINE
  5
677
330
66F
100
AcDbEntity
  8
CSLAYER2
  6
CONTINUOUS
 62
     3
100
AcDbLine
 10
200.81432
 20
110.844711
 30
0.0
 11
200.821836
 21
110.942426
 31
0.0
  0
LINE
  5
678
330
66F
100
AcDbEntity
  8
CSLAYER2
  6
CONTINUOUS
 62
     3
100
AcDbLine
 10
200.821836
 20
110.942426
 30
0.0
 11
200.830904
 21
111.03624
 31
0.0
  0
LINE
  5
679
330
66F
100
AcDbEntity
  8
CSLAYER2
  6
CONTINUOUS
 62
     3
100
AcDbLine
 10
200.830904
 20
111.03624
 30
0.0
 11
200.841457
 21
111.125441
 31
0.0
  0
LINE
  5
67A
330
66F
100
AcDbEntity
  8
CSLAYER2
  6
CONTINUOUS
 62
     3
100
AcDbLine
 10
200.841457
 20
111.125441
 30
0.0
 11
200.853413
 21
111.20935
 31
0.0
  0
LINE
  5
67B
330
66F
100
AcDbEntity
  8
CSLAYER2
  6
CONTINUOUS
 62
     3
100
AcDbLine
 10
200.853413
 20
111.20935
 30
0.0
 11
200.866682
 21
111.287328
 31
0.0
  0
LINE
  5
67C
330
66F
100
AcDbEntity
  8
CSLAYER2
  6
CONTINUOUS
 62
     3
100
AcDbLine
 10
200.866682
 20
111.287328
 30
0.0
 11
200.881162
 21
111.358782
 31
0.0
  0
LINE
  5
67D
330
66F
100
AcDbEntity
  8
CSLAYER2
  6
CONTINUOUS
 62
     3
100
AcDbLine
 10
200.881162
 20
111.358782
 30
0.0
 11
200.896744
 21
111.423167
 31
0.0
  0
LINE
  5
67E
330
66F
100
AcDbEntity
  8
CSLAYER2
  6
CONTINUOUS
 62
     3
100
AcDbLine
 10
200.896744
 20
111.423167
 30
0.0
 11
200.913308
 21
111.479995
 31
0.0
  0
LINE
  5
67F
330
66F
100
AcDbEntity
  8
CSLAYER2
  6
CONTINUOUS
 62
     3
100
AcDbLine
 10
200.913308
 20
111.479995
 30
0.0
 11
200.930728
 21
111.528832
 31
0.0
  0
LINE
  5
680
330
66F
100
AcDbEntity
  8
CSLAYER2
  6
CONTINUOUS
 62
     3
100
AcDbLine
 10
200.930728
 20
111.528832
 30
0.0
 11
200.948874
 21
111.569306
 31
0.0
  0
LINE
  5
681
330
66F
100
AcDbEntity
  8
CSLAYER2
  6
CONTINUOUS
 62
     3
100
AcDbLine
 10
200.948874
 20
111.569306
 30
0.0
 11
200.967604
 21
111.60111
 31
0.0
  0
LINE
  5
682
330
66F
100
AcDbEntity
  8
CSLAYER2
  6
CONTINUOUS
 62
     3
100
AcDbLine
 10
200.967604
 20
111.60111
 30
0.0
 11
200.986779
 21
111.624002
 31
0.0
  0
LINE
  5
683
330
66F
100
AcDbEntity
  8
CSLAYER2
  6
CONTINUOUS
 62
     3
100
AcDbLine
 10
200.986779
 20
111.624002
 30
0.0
 11
201.006251
 21
111.637807
 31
0.0
  0
LINE
  5
684
330
66F
100
AcDbEntity
  8
CSLAYER2
  6
CONTINUOUS
 62
     3
100
AcDbLine
 10
201.006251
 20
111.637807
 30
0.0
 11
201.025872
 21
111.642421
 31
0.0
  0
ENDBLK
  5
671
330
66F
100
AcDbEntity
  8
0
100
AcDbBlockEnd
  0
BLOCK
  5
686
330
685
100
AcDbEntity
  8
0
100
AcDbBlockBegin
  2
BLKF051
 70
     0
 71
     0
 10
0.0
 20
0.0
 30
0.0
  3
BLKF051
  1

  0
LINE
  5
689
330
685
100
AcDbEntity
  8
CSLAYER2
  6
CONTINUOUS
 62
     3
100
AcDbLine
 10
202.871937
 20
111.642421
 30
0.0
 11
202.891559
 21
111.637807
 31
0.0
  0
LINE
  5
68A
330
685
100
AcDbEntity
  8
CSLAYER2
  6
CONTINUOUS
 62
     3
100
AcDbLine
 10
202.891559
 20
111.637807
 30
0.0
 11
202.911031
 21
111.624002
 31
0.0
  0
LINE
  5
68B
330
685
100
AcDbEntity
  8
CSLAYER2
  6
CONTINUOUS
 62
     3
100
AcDbLine
 10
202.911031
 20
111.624002
 30
0.0
 11
202.930205
 21
111.60111
 31
0.0
  0
LINE
  5
68C
330
685
100
AcDbEntity
  8
CSLAYER2
  6
CONTINUOUS
 62
     3
100
AcDbLine
 10
202.930205
 20
111.60111
 30
0.0
 11
202.948936
 21
111.569306
 31
0.0
  0
LINE
  5
68D
330
685
100
AcDbEntity
  8
CSLAYER2
  6
CONTINUOUS
 62
     3
100
AcDbLine
 10
202.948936
 20
111.569306
 30
0.0
 11
202.967081
 21
111.528832
 31
0.0
  0
LINE
  5
68E
330
685
100
AcDbEntity
  8
CSLAYER2
  6
CONTINUOUS
 62
     3
100
AcDbLine
 10
202.967081
 20
111.528832
 30
0.0
 11
202.984502
 21
111.479995
 31
0.0
  0
LINE
  5
68F
330
685
100
AcDbEntity
  8
CSLAYER2
  6
CONTINUOUS
 62
     3
100
AcDbLine
 10
202.984502
 20
111.479995
 30
0.0
 11
203.001066
 21
111.423167
 31
0.0
  0
LINE
  5
690
330
685
100
AcDbEntity
  8
CSLAYER2
  6
CONTINUOUS
 62
     3
100
AcDbLine
 10
203.001066
 20
111.423167
 30
0.0
 11
203.016648
 21
111.358782
 31
0.0
  0
LINE
  5
691
330
685
100
AcDbEntity
  8
CSLAYER2
  6
CONTINUOUS
 62
     3
100
AcDbLine
 10
203.016648
 20
111.358782
 30
0.0
 11
203.031128
 21
111.287328
 31
0.0
  0
LINE
  5
692
330
685
100
AcDbEntity
  8
CSLAYER2
  6
CONTINUOUS
 62
     3
100
AcDbLine
 10
203.031128
 20
111.287328
 30
0.0
 11
203.044396
 21
111.20935
 31
0.0
  0
LINE
  5
693
330
685
100
AcDbEntity
  8
CSLAYER2
  6
CONTINUOUS
 62
     3
100
AcDbLine
 10
203.044396
 20
111.20935
 30
0.0
 11
203.056352
 21
111.125441
 31
0.0
  0
LINE
  5
694
330
685
100
AcDbEntity
  8
CSLAYER2
  6
CONTINUOUS
 62
     3
100
AcDbLine
 10
203.056352
 20
111.125441
 30
0.0
 11
203.066905
 21
111.03624
 31
0.0
  0
LINE
  5
695
330
685
100
AcDbEntity
  8
CSLAYER2
  6
CONTINUOUS
 62
     3
100
AcDbLine
 10
203.066905
 20
111.03624
 30
0.0
 11
203.075974
 21
110.942426
 31
0.0
  0
LINE
  5
696
330
685
100
AcDbEntity
  8
CSLAYER2
  6
CONTINUOUS
 62
     3
100
AcDbLine
 10
203.075974
 20
110.942426
 30
0.0
 11
203.08349
 21
110.844711
 31
0.0
  0
LINE
  5
697
330
685
100
AcDbEntity
  8
CSLAYER2
  6
CONTINUOUS
 62
     3
100
AcDbLine
 10
203.08349
 20
110.844711
 30
0.0
 11
203.089396
 21
110.743842
 31
0.0
  0
LINE
  5
698
330
685
100
AcDbEntity
  8
CSLAYER2
  6
CONTINUOUS
 62
     3
100
AcDbLine
 10
203.089396
 20
110.743842
 30
0.0
 11
203.093647
 21
110.640584
 31
0.0
  0
LINE
  5
699
330
685
100
AcDbEntity
  8
CSLAYER2
  6
CONTINUOUS
 62
     3
100
AcDbLine
 10
203.093647
 20
110.640584
 30
0.0
 11
203.09621
 21
110.535724
 31
0.0
  0
LINE
  5
69A
330
685
100
AcDbEntity
  8
CSLAYER2
  6
CONTINUOUS
 62
     3
100
AcDbLine
 10
203.09621
 20
110.535724
 30
0.0
 11
203.097067
 21
110.430059
 31
0.0
  0
ENDBLK
  5
687
330
685
100
AcDbEntity
  8
0
100
AcDbBlockEnd
  0
BLOCK
  5
6DF
330
6DE
100
AcDbEntity
  8
0
100
AcDbBlockBegin
  2
BLKF052
 70
     0
 71
     0
 10
0.0
 20
0.0
 30
0.0
  3
BLKF052
  1

  0
LINE
  5
6E2
330
6DE
100
AcDbEntity
  8
0
  6
CONTINUOUS
 62
     3
100
AcDbLine
 10
48.267476
 20
110.338467
 30
0.0
 11
45.43516
 21
110.338467
 31
0.0
  0
LINE
  5
6E3
330
6DE
100
AcDbEntity
  8
0
  6
CONTINUOUS
 62
     3
100
AcDbLine
 10
45.43516
 20
110.338467
 30
0.0
 11
45.39702
 21
110.337014
 31
0.0
  0
LINE
  5
6E4
330
6DE
100
AcDbEntity
  8
0
  6
CONTINUOUS
 62
     3
100
AcDbLine
 10
45.39702
 20
110.337014
 30
0.0
 11
45.359104
 21
110.332648
 31
0.0
  0
LINE
  5
6E5
330
6DE
100
AcDbEntity
  8
0
  6
CONTINUOUS
 62
     3
100
AcDbLine
 10
45.359104
 20
110.332648
 30
0.0
 11
45.321628
 21
110.325406
 31
0.0
  0
LINE
  5
6E6
330
6DE
100
AcDbEntity
  8
0
  6
CONTINUOUS
 62
     3
100
AcDbLine
 10
45.321628
 20
110.325406
 30
0.0
 11
45.284807
 21
110.315325
 31
0.0
  0
LINE
  5
6E7
330
6DE
100
AcDbEntity
  8
0
  6
CONTINUOUS
 62
     3
100
AcDbLine
 10
45.284807
 20
110.315325
 30
0.0
 11
45.248873
 21
110.302465
 31
0.0
  0
LINE
  5
6E8
330
6DE
100
AcDbEntity
  8
0
  6
CONTINUOUS
 62
     3
100
AcDbLine
 10
45.248873
 20
110.302465
 30
0.0
 11
45.214019
 21
110.286909
 31
0.0
  0
LINE
  5
6E9
330
6DE
100
AcDbEntity
  8
0
  6
CONTINUOUS
 62
     3
100
AcDbLine
 10
45.214019
 20
110.286909
 30
0.0
 11
45.180454
 21
110.268729
 31
0.0
  0
LINE
  5
6EA
330
6DE
100
AcDbEntity
  8
0
  6
CONTINUOUS
 62
     3
100
AcDbLine
 10
45.180454
 20
110.268729
 30
0.0
 11
45.148372
 21
110.248046
 31
0.0
  0
ENDBLK
  5
6E0
330
6DE
100
AcDbEntity
  8
0
100
AcDbBlockEnd
  0
BLOCK
  5
6F2
330
6F1
100
AcDbEntity
  8
0
100
AcDbBlockBegin
  2
BLKF053
 70
     0
 71
     0
 10
0.0
 20
0.0
 30
0.0
  3
BLKF053
  1

  0
LINE
  5
6F5
330
6F1
100
AcDbEntity
  8
0
  6
CONTINUOUS
 62
     3
100
AcDbLine
 10
50.517476
 20
98.838466
 30
0.0
 11
51.442473
 21
98.838466
 31
0.0
  0
LINE
  5
6F6
330
6F1
100
AcDbEntity
  8
0
  6
CONTINUOUS
 62
     3
100
AcDbLine
 10
51.442473
 20
98.838466
 30
0.0
 11
51.491252
 21
98.843271
 31
0.0
  0
LINE
  5
6F7
330
6F1
100
AcDbEntity
  8
0
  6
CONTINUOUS
 62
     3
100
AcDbLine
 10
51.491252
 20
98.843271
 30
0.0
 11
51.538146
 21
98.857502
 31
0.0
  0
LINE
  5
6F8
330
6F1
100
AcDbEntity
  8
0
  6
CONTINUOUS
 62
     3
100
AcDbLine
 10
51.538146
 20
98.857502
 30
0.0
 11
51.581367
 21
98.880599
 31
0.0
  0
LINE
  5
6F9
330
6F1
100
AcDbEntity
  8
0
  6
CONTINUOUS
 62
     3
100
AcDbLine
 10
51.581367
 20
98.880599
 30
0.0
 11
51.619253
 21
98.91169
 31
0.0
  0
LINE
  5
6FA
330
6F1
100
AcDbEntity
  8
0
  6
CONTINUOUS
 62
     3
100
AcDbLine
 10
51.619253
 20
98.91169
 30
0.0
 11
51.650345
 21
98.949576
 31
0.0
  0
LINE
  5
6FB
330
6F1
100
AcDbEntity
  8
0
  6
CONTINUOUS
 62
     3
100
AcDbLine
 10
51.650345
 20
98.949576
 30
0.0
 11
51.673449
 21
98.992797
 31
0.0
  0
LINE
  5
6FC
330
6F1
100
AcDbEntity
  8
0
  6
CONTINUOUS
 62
     3
100
AcDbLine
 10
51.673449
 20
98.992797
 30
0.0
 11
51.687672
 21
99.039698
 31
0.0
  0
LINE
  5
6FD
330
6F1
100
AcDbEntity
  8
0
  6
CONTINUOUS
 62
     3
100
AcDbLine
 10
51.687672
 20
99.039698
 30
0.0
 11
51.692478
 21
99.08847
 31
0.0
  0
ENDBLK
  5
6F3
330
6F1
100
AcDbEntity
  8
0
100
AcDbBlockEnd
  0
BLOCK
  5
739
330
738
100
AcDbEntity
  8
0
100
AcDbBlockBegin
  2
BLKF054
 70
     0
 71
     0
 10
0.0
 20
0.0
 30
0.0
  3
BLKF054
  1

  0
LINE
  5
73C
330
738
100
AcDbEntity
  8
0
  6
CONTINUOUS
 62
     7
100
AcDbLine
 10
45.851318
 20
98.838466
 30
0.0
 11
28.885932
 21
98.838466
 31
0.0
  0
LINE
  5
73D
330
738
100
AcDbEntity
  8
0
  6
CONTINUOUS
 62
     7
100
AcDbLine
 10
45.851318
 20
110.338467
 30
0.0
 11
28.885932
 21
110.338467
 31
0.0
  0
LINE
  5
73E
330
738
100
AcDbEntity
  8
0
  6
CONTINUOUS
 62
     7
100
AcDbLine
 10
29.885932
 20
98.838466
 30
0.0
 11
29.885932
 21
110.338467
 31
0.0
  0
LINE
  5
73F
330
738
100
AcDbEntity
  8
0
  6
CONTINUOUS
 62
     7
100
AcDbLine
 10
29.885932
 20
98.838466
 30
0.0
 11
29.885932
 21
101.838466
 31
0.0
  0
LINE
  5
740
330
738
100
AcDbEntity
  8
0
  6
CONTINUOUS
 62
     7
100
AcDbLine
 10
29.885932
 20
98.838466
 30
0.0
 11
30.662389
 21
101.736244
 31
0.0
  0
LINE
  5
741
330
738
100
AcDbEntity
  8
0
  6
CONTINUOUS
 62
     7
100
AcDbLine
 10
29.885932
 20
98.838466
 30
0.0
 11
29.109475
 21
101.736244
 31
0.0
  0
LINE
  5
742
330
738
100
AcDbEntity
  8
0
  6
CONTINUOUS
 62
     7
100
AcDbLine
 10
29.885932
 20
110.338467
 30
0.0
 11
29.885932
 21
107.338467
 31
0.0
  0
LINE
  5
743
330
738
100
AcDbEntity
  8
0
  6
CONTINUOUS
 62
     7
100
AcDbLine
 10
29.885932
 20
110.338467
 30
0.0
 11
30.662389
 21
107.440689
 31
0.0
  0
LINE
  5
744
330
738
100
AcDbEntity
  8
0
  6
CONTINUOUS
 62
     7
100
AcDbLine
 10
29.885932
 20
110.338467
 30
0.0
 11
29.109475
 21
107.440689
 31
0.0
  0
TEXT
  5
745
330
738
100
AcDbEntity
  8
0
 62
     7
100
AcDbText
 10
28.885929
 20
101.540924
 30
0.0
 40
3.247003
  1
φ23
 50
90.0
 41
0.716723
  7
ED_VECTOR
 72
     5
 11
28.885929
 21
107.635975
 31
0.0
100
AcDbText
  0
ENDBLK
  5
73A
330
738
100
AcDbEntity
  8
0
100
AcDbBlockEnd
  0
BLOCK
  5
747
330
746
100
AcDbEntity
  8
0
100
AcDbBlockBegin
  2
BLKF055
 70
     0
 71
     0
 10
0.0
 20
0.0
 30
0.0
  3
BLKF055
  1

  0
LINE
  5
74A
330
746
100
AcDbEntity
  8
0
  6
CONTINUOUS
 62
     7
100
AcDbLine
 10
61.25249
 20
94.588473
 30
0.0
 11
22.454757
 21
94.588473
 31
0.0
  0
LINE
  5
74B
330
746
100
AcDbEntity
  8
0
  6
CONTINUOUS
 62
     7
100
AcDbLine
 10
61.25249
 20
114.588472
 30
0.0
 11
22.454757
 21
114.588472
 31
0.0
  0
LINE
  5
74C
330
746
100
AcDbEntity
  8
0
  6
CONTINUOUS
 62
     7
100
AcDbLine
 10
23.454757
 20
94.588473
 30
0.0
 11
23.454757
 21
114.588472
 31
0.0
  0
LINE
  5
74D
330
746
100
AcDbEntity
  8
0
  6
CONTINUOUS
 62
     7
100
AcDbLine
 10
23.454757
 20
94.588473
 30
0.0
 11
23.454757
 21
97.588473
 31
0.0
  0
LINE
  5
74E
330
746
100
AcDbEntity
  8
0
  6
CONTINUOUS
 62
     7
100
AcDbLine
 10
23.454757
 20
94.588473
 30
0.0
 11
24.231214
 21
97.486251
 31
0.0
  0
LINE
  5
74F
330
746
100
AcDbEntity
  8
0
  6
CONTINUOUS
 62
     7
100
AcDbLine
 10
23.454757
 20
94.588473
 30
0.0
 11
22.6783
 21
97.486251
 31
0.0
  0
LINE
  5
750
330
746
100
AcDbEntity
  8
0
  6
CONTINUOUS
 62
     7
100
AcDbLine
 10
23.454757
 20
114.588472
 30
0.0
 11
23.454757
 21
111.588472
 31
0.0
  0
LINE
  5
751
330
746
100
AcDbEntity
  8
0
  6
CONTINUOUS
 62
     7
100
AcDbLine
 10
23.454757
 20
114.588472
 30
0.0
 11
24.231214
 21
111.690694
 31
0.0
  0
LINE
  5
752
330
746
100
AcDbEntity
  8
0
  6
CONTINUOUS
 62
     7
100
AcDbLine
 10
23.454757
 20
114.588472
 30
0.0
 11
22.6783
 21
111.690694
 31
0.0
  0
TEXT
  5
753
330
746
100
AcDbEntity
  8
0
 62
     7
100
AcDbText
 10
22.454754
 20
98.992783
 30
0.0
 40
3.489689
  1
φ40
 50
90.0
 41
0.667902
  7
ED_VECTOR
 72
     5
 11
22.454754
 21
105.09718
 31
0.0
100
AcDbText
  0
TEXT
  5
754
330
746
100
AcDbEntity
  8
0
 62
     7
100
AcDbText
 10
20.709911
 20
105.097183
 30
0.0
 40
1.744845
  1
 0
 50
90.0
 41
0.644467
  7
ED_VECTOR
 72
     5
 11
20.709911
 21
107.131982
 31
0.0
100
AcDbText
  0
TEXT
  5
755
330
746
100
AcDbEntity
  8
0
 62
     7
100
AcDbText
 10
22.454754
 20
105.097183
 30
0.0
 40
1.744845
  1
-0.01
 50
90.0
 41
0.703728
  7
ED_VECTOR
 72
     5
 11
22.454754
 21
110.184181
 31
0.0
100
AcDbText
  0
ENDBLK
  5
748
330
746
100
AcDbEntity
  8
0
100
AcDbBlockEnd
  0
BLOCK
  5
757
330
756
100
AcDbEntity
  8
0
100
AcDbBlockBegin
  2
BLKF056
 70
     0
 71
     0
 10
0.0
 20
0.0
 30
0.0
  3
BLKF056
  1

  0
LINE
  5
75A
330
756
100
AcDbEntity
  8
0
  6
CONTINUOUS
 62
     7
100
AcDbLine
 10
42.992479
 20
109.478199
 30
0.0
 11
42.992479
 21
121.86236
 31
0.0
  0
LINE
  5
75B
330
756
100
AcDbEntity
  8
0
  6
CONTINUOUS
 62
     7
100
AcDbLine
 10
51.692478
 20
110.288471
 30
0.0
 11
51.692478
 21
121.86236
 31
0.0
  0
LINE
  5
75C
330
756
100
AcDbEntity
  8
0
  6
CONTINUOUS
 62
     7
100
AcDbLine
 10
42.992479
 20
120.86236
 30
0.0
 11
51.692478
 21
120.86236
 31
0.0
  0
LINE
  5
75D
330
756
100
AcDbEntity
  8
0
  6
CONTINUOUS
 62
     7
100
AcDbLine
 10
42.992479
 20
120.86236
 30
0.0
 11
45.992479
 21
120.86236
 31
0.0
  0
LINE
  5
75E
330
756
100
AcDbEntity
  8
0
  6
CONTINUOUS
 62
     7
100
AcDbLine
 10
42.992479
 20
120.86236
 30
0.0
 11
45.890257
 21
120.085903
 31
0.0
  0
LINE
  5
75F
330
756
100
AcDbEntity
  8
0
  6
CONTINUOUS
 62
     7
100
AcDbLine
 10
42.992479
 20
120.86236
 30
0.0
 11
45.890257
 21
121.638817
 31
0.0
  0
LINE
  5
760
330
756
100
AcDbEntity
  8
0
  6
CONTINUOUS
 62
     7
100
AcDbLine
 10
51.692478
 20
120.86236
 30
0.0
 11
48.692478
 21
120.86236
 31
0.0
  0
LINE
  5
761
330
756
100
AcDbEntity
  8
0
  6
CONTINUOUS
 62
     7
100
AcDbLine
 10
51.692478
 20
120.86236
 30
0.0
 11
48.7947
 21
120.085903
 31
0.0
  0
LINE
  5
762
330
756
100
AcDbEntity
  8
0
  6
CONTINUOUS
 62
     7
100
AcDbLine
 10
51.692478
 20
120.86236
 30
0.0
 11
48.7947
 21
121.638817
 31
0.0
  0
TEXT
  5
763
330
756
100
AcDbEntity
  8
0
 62
     7
100
AcDbText
 10
43.442661
 20
121.86235
 30
0.0
 40
3.97507
  1
17.4
 41
0.605953
  7
ED_VECTOR
 72
     5
 11
51.242283
 21
121.86235
 31
0.0
100
AcDbText
  0
ENDBLK
  5
758
330
756
100
AcDbEntity
  8
0
100
AcDbBlockEnd
  0
BLOCK
  5
765
330
764
100
AcDbEntity
  8
0
100
AcDbBlockBegin
  2
BLKF057
 70
     0
 71
     0
 10
0.0
 20
0.0
 30
0.0
  3
BLKF057
  1

  0
LINE
  5
768
330
764
100
AcDbEntity
  8
0
  6
CONTINUOUS
 62
     7
100
AcDbLine
 10
42.992479
 20
109.478199
 30
0.0
 11
42.992479
 21
129.264279
 31
0.0
  0
LINE
  5
769
330
764
100
AcDbEntity
  8
0
  6
CONTINUOUS
 62
     7
100
AcDbLine
 10
57.902484
 20
115.463473
 30
0.0
 11
57.902484
 21
129.264279
 31
0.0
  0
LINE
  5
76A
330
764
100
AcDbEntity
  8
0
  6
CONTINUOUS
 62
     7
100
AcDbLine
 10
42.992479
 20
128.264279
 30
0.0
 11
57.902484
 21
128.264279
 31
0.0
  0
LINE
  5
76B
330
764
100
AcDbEntity
  8
0
  6
CONTINUOUS
 62
     7
100
AcDbLine
 10
42.992479
 20
128.264279
 30
0.0
 11
45.992479
 21
128.264279
 31
0.0
  0
LINE
  5
76C
330
764
100
AcDbEntity
  8
0
  6
CONTINUOUS
 62
     7
100
AcDbLine
 10
42.992479
 20
128.264279
 30
0.0
 11
45.890257
 21
127.487822
 31
0.0
  0
LINE
  5
76D
330
764
100
AcDbEntity
  8
0
  6
CONTINUOUS
 62
     7
100
AcDbLine
 10
42.992479
 20
128.264279
 30
0.0
 11
45.890257
 21
129.040736
 31
0.0
  0
LINE
  5
76E
330
764
100
AcDbEntity
  8
0
  6
CONTINUOUS
 62
     7
100
AcDbLine
 10
57.902484
 20
128.264279
 30
0.0
 11
54.902484
 21
128.264279
 31
0.0
  0
LINE
  5
76F
330
764
100
AcDbEntity
  8
0
  6
CONTINUOUS
 62
     7
100
AcDbLine
 10
57.902484
 20
128.264279
 30
0.0
 11
55.004706
 21
127.487822
 31
0.0
  0
LINE
  5
770
330
764
100
AcDbEntity
  8
0
  6
CONTINUOUS
 62
     7
100
AcDbLine
 10
57.902484
 20
128.264279
 30
0.0
 11
55.004706
 21
129.040736
 31
0.0
  0
TEXT
  5
771
330
764
100
AcDbEntity
  8
0
 62
     7
100
AcDbText
 10
44.920303
 20
129.264267
 30
0.0
 40
3.85373
  1
(29.8)
 41
0.640832
  7
ED_VECTOR
 72
     5
 11
55.974667
 21
129.264267
 31
0.0
100
AcDbText
  0
ENDBLK
  5
766
330
764
100
AcDbEntity
  8
0
100
AcDbBlockEnd
  0
BLOCK
  5
773
330
772
100
AcDbEntity
  8
0
100
AcDbBlockBegin
  2
BLKF058
 70
     0
 71
     0
 10
0.0
 20
0.0
 30
0.0
  3
BLKF058
  1

  0
LINE
  5
776
330
772
100
AcDbEntity
  8
0
  6
CONTINUOUS
 62
     7
100
AcDbLine
 10
57.902484
 20
115.463473
 30
0.0
 11
57.902484
 21
129.264279
 31
0.0
  0
LINE
  5
777
330
772
100
AcDbEntity
  8
0
  6
CONTINUOUS
 62
     7
100
AcDbLine
 10
153.352486
 20
115.363474
 30
0.0
 11
153.352486
 21
129.264279
 31
0.0
  0
LINE
  5
778
330
772
100
AcDbEntity
  8
0
  6
CONTINUOUS
 62
     7
100
AcDbLine
 10
57.902484
 20
128.264279
 30
0.0
 11
153.352486
 21
128.264279
 31
0.0
  0
LINE
  5
779
330
772
100
AcDbEntity
  8
0
  6
CONTINUOUS
 62
     7
100
AcDbLine
 10
57.902484
 20
128.264279
 30
0.0
 11
60.902484
 21
128.264279
 31
0.0
  0
LINE
  5
77A
330
772
100
AcDbEntity
  8
0
  6
CONTINUOUS
 62
     7
100
AcDbLine
 10
57.902484
 20
128.264279
 30
0.0
 11
60.800262
 21
127.487822
 31
0.0
  0
LINE
  5
77B
330
772
100
AcDbEntity
  8
0
  6
CONTINUOUS
 62
     7
100
AcDbLine
 10
57.902484
 20
128.264279
 30
0.0
 11
60.800262
 21
129.040736
 31
0.0
  0
LINE
  5
77C
330
772
100
AcDbEntity
  8
0
  6
CONTINUOUS
 62
     7
100
AcDbLine
 10
153.352486
 20
128.264279
 30
0.0
 11
150.352486
 21
128.264279
 31
0.0
  0
LINE
  5
77D
330
772
100
AcDbEntity
  8
0
  6
CONTINUOUS
 62
     7
100
AcDbLine
 10
153.352486
 20
128.264279
 30
0.0
 11
150.454708
 21
127.487822
 31
0.0
  0
LINE
  5
77E
330
772
100
AcDbEntity
  8
0
  6
CONTINUOUS
 62
     7
100
AcDbLine
 10
153.352486
 20
128.264279
 30
0.0
 11
150.454708
 21
129.040736
 31
0.0
  0
TEXT
  5
77F
330
772
100
AcDbEntity
  8
0
 62
     7
100
AcDbText
 10
99.826576
 20
129.264267
 30
0.0
 40
3.85373
  1
190.7
 41
0.726681
  7
ED_VECTOR
 72
     5
 11
111.42837
 21
129.264267
 31
0.0
100
AcDbText
  0
ENDBLK
  5
774
330
772
100
AcDbEntity
  8
0
100
AcDbBlockEnd
  0
BLOCK
  5
781
330
780
100
AcDbEntity
  8
0
100
AcDbBlockBegin
  2
BLKF059
 70
     0
 71
     0
 10
0.0
 20
0.0
 30
0.0
  3
BLKF059
  1

  0
LINE
  5
784
330
780
100
AcDbEntity
  8
0
  6
CONTINUOUS
 62
     7
100
AcDbLine
 10
153.352486
 20
115.363474
 30
0.0
 11
153.352486
 21
129.021593
 31
0.0
  0
LINE
  5
785
330
780
100
AcDbEntity
  8
0
  6
CONTINUOUS
 62
     7
100
AcDbLine
 10
160.751998
 20
114.177517
 30
0.0
 11
160.751998
 21
129.021593
 31
0.0
  0
LINE
  5
786
330
780
100
AcDbEntity
  8
0
  6
CONTINUOUS
 62
     7
100
AcDbLine
 10
153.352486
 20
128.021593
 30
0.0
 11
160.751998
 21
128.021593
 31
0.0
  0
LINE
  5
787
330
780
100
AcDbEntity
  8
0
  6
CONTINUOUS
 62
     7
100
AcDbLine
 10
153.352486
 20
128.021593
 30
0.0
 11
156.352486
 21
128.021593
 31
0.0
  0
LINE
  5
788
330
780
100
AcDbEntity
  8
0
  6
CONTINUOUS
 62
     7
100
AcDbLine
 10
153.352486
 20
128.021593
 30
0.0
 11
156.250264
 21
127.245136
 31
0.0
  0
LINE
  5
789
330
780
100
AcDbEntity
  8
0
  6
CONTINUOUS
 62
     7
100
AcDbLine
 10
153.352486
 20
128.021593
 30
0.0
 11
156.250264
 21
128.79805
 31
0.0
  0
LINE
  5
78A
330
780
100
AcDbEntity
  8
0
  6
CONTINUOUS
 62
     7
100
AcDbLine
 10
160.751998
 20
128.021593
 30
0.0
 11
157.751998
 21
128.021593
 31
0.0
  0
LINE
  5
78B
330
780
100
AcDbEntity
  8
0
  6
CONTINUOUS
 62
     7
100
AcDbLine
 10
160.751998
 20
128.021593
 30
0.0
 11
157.85422
 21
127.245136
 31
0.0
  0
LINE
  5
78C
330
780
100
AcDbEntity
  8
0
  6
CONTINUOUS
 62
     7
100
AcDbLine
 10
160.751998
 20
128.021593
 30
0.0
 11
157.85422
 21
128.79805
 31
0.0
  0
TEXT
  5
78D
330
780
100
AcDbEntity
  8
0
 62
     7
100
AcDbText
 10
154.868073
 20
129.021591
 30
0.0
 40
4.096416
  1
(14.4)
 41
0.675115
  7
ED_VECTOR
 72
     5
 11
167.247212
 21
129.021591
 31
0.0
100
AcDbText
  0
ENDBLK
  5
782
330
780
100
AcDbEntity
  8
0
100
AcDbBlockEnd
  0
BLOCK
  5
78F
330
78E
100
AcDbEntity
  8
0
100
AcDbBlockBegin
  2
BLKF060
 70
     0
 71
     0
 10
0.0
 20
0.0
 30
0.0
  3
BLKF060
  1

  0
LINE
  5
792
330
78E
100
AcDbEntity
  8
0
  6
CONTINUOUS
 62
     7
100
AcDbLine
 10
42.992479
 20
109.478199
 30
0.0
 11
42.992479
 21
138.243656
 31
0.0
  0
LINE
  5
793
330
78E
100
AcDbEntity
  8
0
  6
CONTINUOUS
 62
     7
100
AcDbLine
 10
153.352486
 20
115.363474
 30
0.0
 11
153.352486
 21
138.243656
 31
0.0
  0
LINE
  5
794
330
78E
100
AcDbEntity
  8
0
  6
CONTINUOUS
 62
     7
100
AcDbLine
 10
42.992479
 20
137.243656
 30
0.0
 11
153.352486
 21
137.243656
 31
0.0
  0
LINE
  5
795
330
78E
100
AcDbEntity
  8
0
  6
CONTINUOUS
 62
     7
100
AcDbLine
 10
42.992479
 20
137.243656
 30
0.0
 11
45.992479
 21
137.243656
 31
0.0
  0
LINE
  5
796
330
78E
100
AcDbEntity
  8
0
  6
CONTINUOUS
 62
     7
100
AcDbLine
 10
42.992479
 20
137.243656
 30
0.0
 11
45.890257
 21
136.467199
 31
0.0
  0
LINE
  5
797
330
78E
100
AcDbEntity
  8
0
  6
CONTINUOUS
 62
     7
100
AcDbLine
 10
42.992479
 20
137.243656
 30
0.0
 11
45.890257
 21
138.020113
 31
0.0
  0
LINE
  5
798
330
78E
100
AcDbEntity
  8
0
  6
CONTINUOUS
 62
     7
100
AcDbLine
 10
153.352486
 20
137.243656
 30
0.0
 11
150.352486
 21
137.243656
 31
0.0
  0
LINE
  5
799
330
78E
100
AcDbEntity
  8
0
  6
CONTINUOUS
 62
     7
100
AcDbLine
 10
153.352486
 20
137.243656
 30
0.0
 11
150.454708
 21
136.467199
 31
0.0
  0
LINE
  5
79A
330
78E
100
AcDbEntity
  8
0
  6
CONTINUOUS
 62
     7
100
AcDbLine
 10
153.352486
 20
137.243656
 30
0.0
 11
150.454708
 21
138.020113
 31
0.0
  0
TEXT
  5
79B
330
78E
100
AcDbEntity
  8
0
 62
     7
100
AcDbText
 10
90.983719
 20
138.243668
 30
0.0
 40
4.096392
  1
(224.7)
 41
0.646542
  7
ED_VECTOR
 72
     5
 11
105.361224
 21
138.243668
 31
0.0
100
AcDbText
  0
ENDBLK
  5
790
330
78E
100
AcDbEntity
  8
0
100
AcDbBlockEnd
  0
BLOCK
  5
79D
330
79C
100
AcDbEntity
  8
0
100
AcDbBlockBegin
  2
BLKF061
 70
     0
 71
     0
 10
0.0
 20
0.0
 30
0.0
  3
BLKF061
  1

  0
LINE
  5
7A0
330
79C
100
AcDbEntity
  8
0
  6
CONTINUOUS
 62
     7
100
AcDbLine
 10
153.352486
 20
115.363474
 30
0.0
 11
153.352486
 21
138.243656
 31
0.0
  0
LINE
  5
7A1
330
79C
100
AcDbEntity
  8
0
  6
CONTINUOUS
 62
     7
100
AcDbLine
 10
209.198084
 20
113.838948
 30
0.0
 11
209.198084
 21
138.243656
 31
0.0
  0
LINE
  5
7A2
330
79C
100
AcDbEntity
  8
0
  6
CONTINUOUS
 62
     7
100
AcDbLine
 10
153.352486
 20
137.243656
 30
0.0
 11
209.198084
 21
137.243656
 31
0.0
  0
LINE
  5
7A3
330
79C
100
AcDbEntity
  8
0
  6
CONTINUOUS
 62
     7
100
AcDbLine
 10
153.352486
 20
137.243656
 30
0.0
 11
156.352486
 21
137.243656
 31
0.0
  0
LINE
  5
7A4
330
79C
100
AcDbEntity
  8
0
  6
CONTINUOUS
 62
     7
100
AcDbLine
 10
153.352486
 20
137.243656
 30
0.0
 11
156.250264
 21
136.467199
 31
0.0
  0
LINE
  5
7A5
330
79C
100
AcDbEntity
  8
0
  6
CONTINUOUS
 62
     7
100
AcDbLine
 10
153.352486
 20
137.243656
 30
0.0
 11
156.250264
 21
138.020113
 31
0.0
  0
LINE
  5
7A6
330
79C
100
AcDbEntity
  8
0
  6
CONTINUOUS
 62
     7
100
AcDbLine
 10
209.198084
 20
137.243656
 30
0.0
 11
206.198084
 21
137.243656
 31
0.0
  0
LINE
  5
7A7
330
79C
100
AcDbEntity
  8
0
  6
CONTINUOUS
 62
     7
100
AcDbLine
 10
209.198084
 20
137.243656
 30
0.0
 11
206.300306
 21
136.467199
 31
0.0
  0
LINE
  5
7A8
330
79C
100
AcDbEntity
  8
0
  6
CONTINUOUS
 62
     7
100
AcDbLine
 10
209.198084
 20
137.243656
 30
0.0
 11
206.300306
 21
138.020113
 31
0.0
  0
TEXT
  5
7A9
330
79C
100
AcDbEntity
  8
0
 62
     7
100
AcDbText
 10
175.646866
 20
138.243668
 30
0.0
 40
3.975049
  1
(300)
 41
0.707967
  7
ED_VECTOR
 72
     5
 11
186.903674
 21
138.243668
 31
0.0
100
AcDbText
  0
ENDBLK
  5
79E
330
79C
100
AcDbEntity
  8
0
100
AcDbBlockEnd
  0
ENDSEC
  0
SECTION
  2
ENTITIES
  0
LINE
  5
6F
330
1F
100
AcDbEntity
  8
CSLAYER2
  6
CONTINUOUS
 62
     3
100
AcDbLine
 10
59.849211
 20
114.463473
 30
0.0
 11
59.849211
 21
94.713473
 31
0.0
  0
LINE
  5
70
330
1F
100
AcDbEntity
  8
0
  6
CONTINUOUS
 62
     3
100
AcDbLine
 10
57.902484
 20
109.538473
 30
0.0
 11
57.85249
 21
109.538473
 31
0.0
  0
LINE
  5
71
330
1F
100
AcDbEntity
  8
0
  6
CONTINUOUS
 62
     3
100
AcDbLine
 10
57.85249
 20
99.638473
 30
0.0
 11
57.902484
 21
99.638473
 31
0.0
  0
LINE
  5
72
330
1F
100
AcDbEntity
  8
0
  6
CONTINUOUS
 62
     3
100
AcDbLine
 10
142.952489
 20
114.563473
 30
0.0
 11
142.452488
 21
114.563473
 31
0.0
  0
LINE
  5
73
330
1F
100
AcDbEntity
  8
0
  6
CONTINUOUS
 62
     3
100
AcDbLine
 10
142.452488
 20
94.613472
 30
0.0
 11
142.952489
 21
94.613472
 31
0.0
  0
LINE
  5
74
330
1F
100
AcDbEntity
  8
0
  6
CONTINUOUS
 62
     3
100
AcDbLine
 10
153.15249
 20
114.563473
 30
0.0
 11
143.052491
 21
114.563473
 31
0.0
  0
LINE
  5
75
330
1F
100
AcDbEntity
  8
0
  6
CONTINUOUS
 62
     3
100
AcDbLine
 10
143.052491
 20
94.613472
 30
0.0
 11
153.15249
 21
94.613472
 31
0.0
  0
LINE
  5
76
330
1F
100
AcDbEntity
  8
0
  6
CONTINUOUS
 62
     3
100
AcDbLine
 10
153.15249
 20
94.613472
 30
0.0
 11
153.252488
 21
94.713472
 31
0.0
  0
LINE
  5
77
330
1F
100
AcDbEntity
  8
0
  6
CONTINUOUS
 62
     3
100
AcDbLine
 10
153.252488
 20
114.463473
 30
0.0
 11
153.15249
 21
114.563473
 31
0.0
  0
LINE
  5
78
330
1F
100
AcDbEntity
  8
0
  6
CONTINUOUS
 62
     3
100
AcDbLine
 10
143.052491
 20
114.563473
 30
0.0
 11
142.952489
 21
114.463473
 31
0.0
  0
LINE
  5
79
330
1F
100
AcDbEntity
  8
0
  6
CONTINUOUS
 62
     3
100
AcDbLine
 10
142.952489
 20
94.713472
 30
0.0
 11
143.052491
 21
94.613472
 31
0.0
  0
LINE
  5
7A
330
1F
100
AcDbEntity
  8
0
  6
CONTINUOUS
 62
     3
100
AcDbLine
 10
58.002485
 20
114.563473
 30
0.0
 11
57.902484
 21
114.463473
 31
0.0
  0
LINE
  5
7B
330
1F
100
AcDbEntity
  8
0
  6
CONTINUOUS
 62
     3
100
AcDbLine
 10
57.902484
 20
94.713472
 30
0.0
 11
58.002485
 21
94.613472
 31
0.0
  0
LINE
  5
7C
330
1F
100
AcDbEntity
  8
0
  6
CONTINUOUS
 62
     3
100
AcDbLine
 10
58.20824
 20
114.563473
 30
0.0
 11
58.002485
 21
114.563473
 31
0.0
  0
LINE
  5
7D
330
1F
100
AcDbEntity
  8
0
  6
CONTINUOUS
 62
     3
100
AcDbLine
 10
59.702484
 20
114.563473
 30
0.0
 11
59.101804
 21
114.563473
 31
0.0
  0
LINE
  5
7E
330
1F
100
AcDbEntity
  8
0
  6
CONTINUOUS
 62
     3
100
AcDbLine
 10
59.101804
 20
94.613472
 30
0.0
 11
59.702484
 21
94.613472
 31
0.0
  0
LINE
  5
7F
330
1F
100
AcDbEntity
  8
0
  6
CONTINUOUS
 62
     3
100
AcDbLine
 10
58.002485
 20
94.613472
 30
0.0
 11
58.20824
 21
94.613472
 31
0.0
  0
LINE
  5
80
330
1F
100
AcDbEntity
  8
0
  6
CONTINUOUS
 62
     3
100
AcDbLine
 10
59.702484
 20
94.613472
 30
0.0
 11
59.802486
 21
94.713472
 31
0.0
  0
LINE
  5
81
330
1F
100
AcDbEntity
  8
0
  6
CONTINUOUS
 62
     3
100
AcDbLine
 10
59.802486
 20
114.463473
 30
0.0
 11
59.702484
 21
114.563473
 31
0.0
  0
LINE
  5
82
330
1F
100
AcDbEntity
  8
0
  6
CONTINUOUS
 62
     3
100
AcDbLine
 10
60.052483
 20
113.463473
 30
0.0
 11
59.802486
 21
113.463473
 31
0.0
  0
LINE
  5
83
330
1F
100
AcDbEntity
  8
0
  6
CONTINUOUS
 62
     3
100
AcDbLine
 10
59.802486
 20
95.713472
 30
0.0
 11
60.052483
 21
95.713472
 31
0.0
  0
LINE
  5
84
330
1F
100
AcDbEntity
  8
0
  6
CONTINUOUS
 62
     3
100
AcDbLine
 10
77.390885
 20
114.588472
 30
0.0
 11
62.25249
 21
114.588472
 31
0.0
  0
LINE
  5
85
330
1F
100
AcDbEntity
  8
0
  6
CONTINUOUS
 62
     3
100
AcDbLine
 10
136.452491
 20
114.588472
 30
0.0
 11
79.064092
 21
114.588472
 31
0.0
  0
LINE
  5
86
330
1F
100
AcDbEntity
  8
0
  6
CONTINUOUS
 62
     3
100
AcDbLine
 10
62.25249
 20
94.588473
 30
0.0
 11
136.452491
 21
94.588473
 31
0.0
  0
LINE
  5
87
330
1F
100
AcDbEntity
  8
0
  6
CONTINUOUS
 62
     3
100
AcDbLine
 10
62.25249
 20
114.580973
 30
0.0
 11
60.152484
 21
114.580973
 31
0.0
  0
LINE
  5
88
330
1F
100
AcDbEntity
  8
0
  6
CONTINUOUS
 62
     3
100
AcDbLine
 10
60.152484
 20
94.595973
 30
0.0
 11
62.25249
 21
94.595973
 31
0.0
  0
LINE
  5
89
330
1F
100
AcDbEntity
  8
0
  6
CONTINUOUS
 62
     3
100
AcDbLine
 10
60.152484
 20
114.580973
 30
0.0
 11
60.052483
 21
114.480973
 31
0.0
  0
LINE
  5
8A
330
1F
100
AcDbEntity
  8
0
  6
CONTINUOUS
 62
     3
100
AcDbLine
 10
60.052483
 20
94.695973
 30
0.0
 11
60.152484
 21
94.595973
 31
0.0
  0
LINE
  5
8B
330
1F
100
AcDbEntity
  8
0
  6
CONTINUOUS
 62
     3
100
AcDbLine
 10
142.452488
 20
114.563473
 30
0.0
 11
136.452491
 21
114.563473
 31
0.0
  0
LINE
  5
8C
330
1F
100
AcDbEntity
  8
0
  6
CONTINUOUS
 62
     3
100
AcDbLine
 10
136.452491
 20
94.613472
 30
0.0
 11
142.452488
 21
94.613472
 31
0.0
  0
LINE
  5
8D
330
1F
100
AcDbEntity
  8
0
  6
CONTINUOUS
 62
     3
100
AcDbLine
 10
57.85249
 20
109.538473
 30
0.0
 11
57.85249
 21
108.838473
 31
0.0
  0
LINE
  5
8E
330
1F
100
AcDbEntity
  8
0
  6
CONTINUOUS
 62
     3
100
AcDbLine
 10
57.85249
 20
100.338472
 30
0.0
 11
57.85249
 21
99.638473
 31
0.0
  0
LINE
  5
8F
330
1F
100
AcDbEntity
  8
0
  6
CONTINUOUS
 62
     3
100
AcDbLine
 10
142.952489
 20
96.472012
 30
0.0
 11
142.952489
 21
94.613472
 31
0.0
  0
LINE
  5
90
330
1F
100
AcDbEntity
  8
0
  6
CONTINUOUS
 62
     3
100
AcDbLine
 10
142.952489
 20
114.563473
 30
0.0
 11
142.952489
 21
96.472012
 31
0.0
  0
LINE
  5
91
330
1F
100
AcDbEntity
  8
0
  6
CONTINUOUS
 62
     3
100
AcDbLine
 10
153.252488
 20
96.55338
 30
0.0
 11
153.252488
 21
94.713472
 31
0.0
  0
LINE
  5
92
330
1F
100
AcDbEntity
  8
0
  6
CONTINUOUS
 62
     3
100
AcDbLine
 10
153.252488
 20
114.463473
 30
0.0
 11
153.252488
 21
96.55338
 31
0.0
  0
LINE
  5
93
330
1F
100
AcDbEntity
  8
0
  6
CONTINUOUS
 62
     3
100
AcDbLine
 10
57.902484
 20
94.713472
 30
0.0
 11
57.902484
 21
114.463473
 31
0.0
  0
INSERT
  5
97
330
1F
100
AcDbEntity
  8
0
100
AcDbBlockReference
  2
BLKF011
 10
0.0
 20
0.0
 30
0.0
  0
INSERT
  5
B7
330
1F
100
AcDbEntity
  8
0
100
AcDbBlockReference
  2
BLKF012
 10
0.0
 20
0.0
 30
0.0
  0
INSERT
  5
F4
330
1F
100
AcDbEntity
  8
0
100
AcDbBlockReference
  2
BLKF013
 10
0.0
 20
0.0
 30
0.0
  0
LINE
  5
14D
330
1F
100
AcDbEntity
  8
0
  6
CONTINUOUS
 62
     3
100
AcDbLine
 10
59.802486
 20
104.588473
 30
0.0
 11
59.802486
 21
94.713472
 31
0.0
  0
LINE
  5
14E
330
1F
100
AcDbEntity
  8
0
  6
CONTINUOUS
 62
     3
100
AcDbLine
 10
59.802486
 20
114.463473
 30
0.0
 11
59.802486
 21
104.588473
 31
0.0
  0
LINE
  5
14F
330
1F
100
AcDbEntity
  8
0
  6
CONTINUOUS
 62
     3
100
AcDbLine
 10
78.977486
 20
114.438473
 30
0.0
 11
77.477491
 21
114.438473
 31
0.0
  0
LINE
  5
150
330
1F
100
AcDbEntity
  8
0
  6
CONTINUOUS
 62
     3
100
AcDbLine
 10
79.064092
 20
114.588472
 30
0.0
 11
79.054451
 21
114.571769
 31
0.0
  0
LINE
  5
151
330
1F
100
AcDbEntity
  8
0
  6
CONTINUOUS
 62
     3
100
AcDbLine
 10
79.054451
 20
114.571769
 30
0.0
 11
78.977486
 21
114.438473
 31
0.0
  0
LINE
  5
152
330
1F
100
AcDbEntity
  8
0
  6
CONTINUOUS
 62
     3
100
AcDbLine
 10
77.477491
 20
114.438473
 30
0.0
 11
77.400534
 21
114.571769
 31
0.0
  0
LINE
  5
153
330
1F
100
AcDbEntity
  8
0
  6
CONTINUOUS
 62
     3
100
AcDbLine
 10
77.400534
 20
114.571769
 30
0.0
 11
77.390885
 21
114.588472
 31
0.0
  0
LINE
  5
154
330
1F
100
AcDbEntity
  8
0
  6
CONTINUOUS
 62
     3
100
AcDbLine
 10
60.052483
 20
94.695973
 30
0.0
 11
60.052483
 21
114.480973
 31
0.0
  0
LINE
  5
155
330
1F
100
AcDbEntity
  8
0
  6
CONTINUOUS
 62
     3
100
AcDbLine
 10
153.252488
 20
114.463473
 30
0.0
 11
145.106654
 21
114.463473
 31
0.0
  0
LINE
  5
156
330
1F
100
AcDbEntity
  8
0
  6
CONTINUOUS
 62
     3
100
AcDbLine
 10
145.207826
 20
94.513473
 30
0.0
 11
153.252488
 21
94.513473
 31
0.0
  0
LINE
  5
157
330
1F
100
AcDbEntity
  8
0
  6
CONTINUOUS
 62
     3
100
AcDbLine
 10
153.252488
 20
94.513473
 30
0.0
 11
153.352486
 21
94.613473
 31
0.0
  0
LINE
  5
158
330
1F
100
AcDbEntity
  8
0
  6
CONTINUOUS
 62
     3
100
AcDbLine
 10
153.352486
 20
114.363474
 30
0.0
 11
153.252488
 21
114.463473
 31
0.0
  0
LINE
  5
159
330
1F
100
AcDbEntity
  8
0
  6
CONTINUOUS
 62
     3
100
AcDbLine
 10
153.352486
 20
96.453381
 30
0.0
 11
153.352486
 21
94.613473
 31
0.0
  0
LINE
  5
15A
330
1F
100
AcDbEntity
  8
0
  6
CONTINUOUS
 62
     3
100
AcDbLine
 10
153.352486
 20
114.363474
 30
0.0
 11
153.352486
 21
96.453381
 31
0.0
  0
LINE
  5
15B
330
1F
100
AcDbEntity
  8
0
  6
CONTINUOUS
 62
     3
100
AcDbLine
 10
160.762801
 20
104.472992
 30
0.0
 11
161.0328
 21
104.472992
 31
0.0
  0
LINE
  5
15C
330
1F
100
AcDbEntity
  8
0
  6
CONTINUOUS
 62
     3
100
AcDbLine
 10
160.2228
 20
105.174992
 30
0.0
 11
160.492801
 21
105.174992
 31
0.0
  0
LINE
  5
15D
330
1F
100
AcDbEntity
  8
0
  6
CONTINUOUS
 62
     3
100
AcDbLine
 10
160.762801
 20
104.781333
 30
0.0
 11
160.755555
 21
104.788578
 31
0.0
  0
LINE
  5
15E
330
1F
100
AcDbEntity
  8
0
  6
CONTINUOUS
 62
     3
100
AcDbLine
 10
157.417455
 20
96.035987
 30
0.0
 11
157.522801
 21
96.141333
 31
0.0
  0
LINE
  5
15F
330
1F
100
AcDbEntity
  8
0
  6
CONTINUOUS
 62
     3
100
AcDbLine
 10
157.522801
 20
104.781333
 30
0.0
 11
157.417455
 21
104.886679
 31
0.0
  0
LINE
  5
160
330
1F
100
AcDbEntity
  8
0
  6
CONTINUOUS
 62
     3
100
AcDbLine
 10
160.701226
 20
106.747655
 30
0.0
 11
160.762801
 21
106.809228
 31
0.0
  0
LINE
  5
161
330
1F
100
AcDbEntity
  8
0
  6
CONTINUOUS
 62
     3
100
AcDbLine
 10
159.952802
 20
106.610145
 30
0.0
 11
159.952802
 21
104.863816
 31
0.0
  0
LINE
  5
162
330
1F
100
AcDbEntity
  8
0
  6
CONTINUOUS
 62
     3
100
AcDbLine
 10
155.719201
 20
106.756935
 30
0.0
 11
155.719201
 21
104.990556
 31
0.0
  0
LINE
  5
163
330
1F
100
AcDbEntity
  8
0
  6
CONTINUOUS
 62
     3
100
AcDbLine
 10
161.0328
 20
108.159228
 30
0.0
 11
161.0328
 21
104.472992
 31
0.0
  0
LINE
  5
164
330
1F
100
AcDbEntity
  8
0
  6
CONTINUOUS
 62
     3
100
AcDbLine
 10
160.492801
 20
106.610145
 30
0.0
 11
160.492801
 21
104.81864
 31
0.0
  0
LINE
  5
165
330
1F
100
AcDbEntity
  8
0
  6
CONTINUOUS
 62
     3
100
AcDbLine
 10
160.2228
 20
106.610145
 30
0.0
 11
160.2228
 21
104.863816
 31
0.0
  0
LINE
  5
166
330
1F
100
AcDbEntity
  8
0
  6
CONTINUOUS
 62
     3
100
AcDbLine
 10
160.492801
 20
103.787155
 30
0.0
 11
160.762801
 21
102.401313
 31
0.0
  0
INSERT
  5
16A
330
1F
100
AcDbEntity
  8
0
100
AcDbBlockReference
  2
BLKF014
 10
0.0
 20
0.0
 30
0.0
  0
LINE
  5
18B
330
1F
100
AcDbEntity
  8
0
  6
CONTINUOUS
 62
     3
100
AcDbLine
 10
157.630801
 20
101.015471
 30
0.0
 11
160.492801
 21
101.015471
 31
0.0
  0
INSERT
  5
18F
330
1F
100
AcDbEntity
  8
0
100
AcDbBlockReference
  2
BLKF015
 10
0.0
 20
0.0
 30
0.0
  0
LINE
  5
196
330
1F
100
AcDbEntity
  8
0
  6
CONTINUOUS
 62
     3
100
AcDbLine
 10
157.522801
 20
103.468256
 30
0.0
 11
157.630801
 21
103.787155
 31
0.0
  0
LINE
  5
197
330
1F
100
AcDbEntity
  8
0
  6
CONTINUOUS
 62
     3
100
AcDbLine
 10
157.630801
 20
103.787155
 30
0.0
 11
160.492801
 21
103.787155
 31
0.0
  0
LINE
  5
198
330
1F
100
AcDbEntity
  8
0
  6
CONTINUOUS
 62
     3
100
AcDbLine
 10
157.522801
 20
101.33437
 30
0.0
 11
157.522801
 21
102.161861
 31
0.0
  0
LINE
  5
199
330
1F
100
AcDbEntity
  8
0
  6
CONTINUOUS
 62
     3
100
AcDbLine
 10
157.522801
 20
102.401313
 30
0.0
 11
157.522801
 21
103.468256
 31
0.0
  0
LINE
  5
19A
330
1F
100
AcDbEntity
  8
0
  6
CONTINUOUS
 62
     3
100
AcDbLine
 10
160.762801
 20
102.401313
 30
0.0
 11
160.762801
 21
98.088546
 31
0.0
  0
LINE
  5
19B
330
1F
100
AcDbEntity
  8
0
  6
CONTINUOUS
 62
     3
100
AcDbLine
 10
160.492801
 20
99.384672
 30
0.0
 11
160.762801
 21
98.088546
 31
0.0
  0
LINE
  5
19C
330
1F
100
AcDbEntity
  8
0
  6
CONTINUOUS
 62
     3
100
AcDbLine
 10
160.492801
 20
99.384672
 30
0.0
 11
160.492801
 21
101.015471
 31
0.0
  0
LINE
  5
19D
330
1F
100
AcDbEntity
  8
0
  6
CONTINUOUS
 62
     3
100
AcDbLine
 10
157.630801
 20
101.015471
 30
0.0
 11
157.630801
 21
99.384672
 31
0.0
  0
LINE
  5
19E
330
1F
100
AcDbEntity
  8
0
  6
CONTINUOUS
 62
     3
100
AcDbLine
 10
157.522801
 20
99.086418
 30
0.0
 11
157.630801
 21
99.384672
 31
0.0
  0
LINE
  5
19F
330
1F
100
AcDbEntity
  8
0
  6
CONTINUOUS
 62
     3
100
AcDbLine
 10
157.522801
 20
99.086418
 30
0.0
 11
157.522801
 21
101.33437
 31
0.0
  0
LINE
  5
1A0
330
1F
100
AcDbEntity
  8
0
  6
CONTINUOUS
 62
     3
100
AcDbLine
 10
157.630801
 20
99.384672
 30
0.0
 11
160.492801
 21
99.384672
 31
0.0
  0
INSERT
  5
1A4
330
1F
100
AcDbEntity
  8
0
100
AcDbBlockReference
  2
BLKF016
 10
0.0
 20
0.0
 30
0.0
  0
LINE
  5
1C5
330
1F
100
AcDbEntity
  8
0
  6
CONTINUOUS
 62
     3
100
AcDbLine
 10
157.630801
 20
96.79242
 30
0.0
 11
160.492801
 21
96.79242
 31
0.0
  0
INSERT
  5
1C9
330
1F
100
AcDbEntity
  8
0
100
AcDbBlockReference
  2
BLKF017
 10
0.0
 20
0.0
 30
0.0
  0
LINE
  5
1D0
330
1F
100
AcDbEntity
  8
0
  6
CONTINUOUS
 62
     3
100
AcDbLine
 10
157.522801
 20
97.090674
 30
0.0
 11
157.522801
 21
97.864596
 31
0.0
  0
LINE
  5
1D1
330
1F
100
AcDbEntity
  8
0
  6
CONTINUOUS
 62
     3
100
AcDbLine
 10
157.522801
 20
98.088546
 30
0.0
 11
157.522801
 21
99.086418
 31
0.0
  0
LINE
  5
1D2
330
1F
100
AcDbEntity
  8
0
  6
CONTINUOUS
 62
     3
100
AcDbLine
 10
160.492801
 20
103.787155
 30
0.0
 11
160.492801
 21
104.684384
 31
0.0
  0
INSERT
  5
1D6
330
1F
100
AcDbEntity
  8
0
100
AcDbBlockReference
  2
BLKF018
 10
0.0
 20
0.0
 30
0.0
  0
LINE
  5
1E3
330
1F
100
AcDbEntity
  8
0
  6
CONTINUOUS
 62
     3
100
AcDbLine
 10
160.762801
 20
104.7741
 30
0.0
 11
160.762801
 21
102.401313
 31
0.0
  0
INSERT
  5
1E7
330
1F
100
AcDbEntity
  8
0
100
AcDbBlockReference
  2
BLKF019
 10
0.0
 20
0.0
 30
0.0
  0
LINE
  5
1F4
330
1F
100
AcDbEntity
  8
0
  6
CONTINUOUS
 62
     3
100
AcDbLine
 10
160.492801
 20
96.05885
 30
0.0
 11
160.492801
 21
96.79242
 31
0.0
  0
LINE
  5
1F5
330
1F
100
AcDbEntity
  8
0
  6
CONTINUOUS
 62
     3
100
AcDbLine
 10
160.762801
 20
98.088546
 30
0.0
 11
160.762801
 21
96.148566
 31
0.0
  0
INSERT
  5
1F9
330
1F
100
AcDbEntity
  8
0
100
AcDbBlockReference
  2
BLKF020
 10
0.0
 20
0.0
 30
0.0
  0
LINE
  5
1FE
330
1F
100
AcDbEntity
  8
0
  6
CONTINUOUS
 62
     3
100
AcDbLine
 10
157.630801
 20
104.684384
 30
0.0
 11
157.630801
 21
103.787155
 31
0.0
  0
LINE
  5
1FF
330
1F
100
AcDbEntity
  8
0
  6
CONTINUOUS
 62
     3
100
AcDbLine
 10
157.522801
 20
103.468256
 30
0.0
 11
157.522801
 21
104.705029
 31
0.0
  0
LINE
  5
200
330
1F
100
AcDbEntity
  8
0
  6
CONTINUOUS
 62
     3
100
AcDbLine
 10
157.630801
 20
104.684384
 30
0.0
 11
160.492801
 21
104.684384
 31
0.0
  0
LINE
  5
201
330
1F
100
AcDbEntity
  8
0
  6
CONTINUOUS
 62
     3
100
AcDbLine
 10
157.630801
 20
96.79242
 30
0.0
 11
157.630801
 21
96.05885
 31
0.0
  0
LINE
  5
202
330
1F
100
AcDbEntity
  8
0
  6
CONTINUOUS
 62
     3
100
AcDbLine
 10
157.522801
 20
96.079494
 30
0.0
 11
157.630801
 21
96.05885
 31
0.0
  0
LINE
  5
203
330
1F
100
AcDbEntity
  8
0
  6
CONTINUOUS
 62
     3
100
AcDbLine
 10
157.522801
 20
96.079494
 30
0.0
 11
157.522801
 21
97.090674
 31
0.0
  0
LINE
  5
204
330
1F
100
AcDbEntity
  8
0
  6
CONTINUOUS
 62
     3
100
AcDbLine
 10
157.630801
 20
96.05885
 30
0.0
 11
160.492801
 21
96.05885
 31
0.0
  0
INSERT
  5
208
330
1F
100
AcDbEntity
  8
0
100
AcDbBlockReference
  2
BLKF021
 10
0.0
 20
0.0
 30
0.0
  0
LINE
  5
227
330
1F
100
AcDbEntity
  8
0
  6
CONTINUOUS
 62
     3
100
AcDbLine
 10
157.522801
 20
104.843171
 30
0.0
 11
157.630801
 21
104.863816
 31
0.0
  0
LINE
  5
228
330
1F
100
AcDbEntity
  8
0
  6
CONTINUOUS
 62
     3
100
AcDbLine
 10
157.630801
 20
104.863816
 30
0.0
 11
160.492801
 21
104.863816
 31
0.0
  0
LINE
  5
229
330
1F
100
AcDbEntity
  8
0
  6
CONTINUOUS
 62
     3
100
AcDbLine
 10
157.522801
 20
104.705029
 30
0.0
 11
157.522801
 21
104.758598
 31
0.0
  0
LINE
  5
22A
330
1F
100
AcDbEntity
  8
0
  6
CONTINUOUS
 62
     3
100
AcDbLine
 10
160.762801
 20
104.781333
 30
0.0
 11
160.762801
 21
104.7741
 31
0.0
  0
LINE
  5
22B
330
1F
100
AcDbEntity
  8
0
  6
CONTINUOUS
 62
     3
100
AcDbLine
 10
157.2528
 20
98.841451
 30
0.0
 11
157.2528
 21
100.448067
 31
0.0
  0
INSERT
  5
22F
330
1F
100
AcDbEntity
  8
0
100
AcDbBlockReference
  2
BLKF022
 10
0.0
 20
0.0
 30
0.0
  0
LINE
  5
244
330
1F
100
AcDbEntity
  8
0
  6
CONTINUOUS
 62
     3
100
AcDbLine
 10
157.2528
 20
98.841451
 30
0.0
 11
157.522801
 21
97.660555
 31
0.0
  0
LINE
  5
245
330
1F
100
AcDbEntity
  8
0
  6
CONTINUOUS
 62
     3
100
AcDbLine
 10
153.364801
 20
100.448067
 30
0.0
 11
153.364801
 21
98.841451
 31
0.0
  0
LINE
  5
246
330
1F
100
AcDbEntity
  8
0
  6
CONTINUOUS
 62
     3
100
AcDbLine
 10
153.364801
 20
100.448067
 30
0.0
 11
157.2528
 21
100.448067
 31
0.0
  0
LINE
  5
247
330
1F
100
AcDbEntity
  8
0
  6
CONTINUOUS
 62
     3
100
AcDbLine
 10
153.364801
 20
98.841451
 30
0.0
 11
157.2528
 21
98.841451
 31
0.0
  0
INSERT
  5
24B
330
1F
100
AcDbEntity
  8
0
100
AcDbBlockReference
  2
BLKF023
 10
0.0
 20
0.0
 30
0.0
  0
LINE
  5
26C
330
1F
100
AcDbEntity
  8
0
  6
CONTINUOUS
 62
     3
100
AcDbLine
 10
153.364801
 20
96.47966
 30
0.0
 11
157.2528
 21
96.47966
 31
0.0
  0
INSERT
  5
270
330
1F
100
AcDbEntity
  8
0
100
AcDbBlockReference
  2
BLKF024
 10
0.0
 20
0.0
 30
0.0
  0
LINE
  5
28F
330
1F
100
AcDbEntity
  8
0
  6
CONTINUOUS
 62
     3
100
AcDbLine
 10
153.364801
 20
103.370674
 30
0.0
 11
157.2528
 21
103.370674
 31
0.0
  0
LINE
  5
290
330
1F
100
AcDbEntity
  8
0
  6
CONTINUOUS
 62
     3
100
AcDbLine
 10
157.2528
 20
103.370674
 30
0.0
 11
157.2528
 21
104.42974
 31
0.0
  0
INSERT
  5
294
330
1F
100
AcDbEntity
  8
0
100
AcDbBlockReference
  2
BLKF025
 10
0.0
 20
0.0
 30
0.0
  0
LINE
  5
2B5
330
1F
100
AcDbEntity
  8
0
  6
CONTINUOUS
 62
     3
100
AcDbLine
 10
153.364801
 20
104.42974
 30
0.0
 11
153.364801
 21
103.370674
 31
0.0
  0
LINE
  5
2B6
330
1F
100
AcDbEntity
  8
0
  6
CONTINUOUS
 62
     3
100
AcDbLine
 10
157.2528
 20
95.932109
 30
0.0
 11
157.384528
 21
96.068914
 31
0.0
  0
LINE
  5
2B7
330
1F
100
AcDbEntity
  8
0
  6
CONTINUOUS
 62
     3
100
AcDbLine
 10
157.2528
 20
95.932109
 30
0.0
 11
157.2528
 21
96.47966
 31
0.0
  0
LINE
  5
2B8
330
1F
100
AcDbEntity
  8
0
  6
CONTINUOUS
 62
     3
100
AcDbLine
 10
153.364801
 20
104.42974
 30
0.0
 11
157.2528
 21
104.42974
 31
0.0
  0
LINE
  5
2B9
330
1F
100
AcDbEntity
  8
0
  6
CONTINUOUS
 62
     3
100
AcDbLine
 10
153.364801
 20
96.47966
 30
0.0
 11
153.364801
 21
95.932109
 31
0.0
  0
LINE
  5
2BA
330
1F
100
AcDbEntity
  8
0
  6
CONTINUOUS
 62
     3
100
AcDbLine
 10
153.364801
 20
95.932109
 30
0.0
 11
157.2528
 21
95.932109
 31
0.0
  0
LINE
  5
2BB
330
1F
100
AcDbEntity
  8
0
  6
CONTINUOUS
 62
     3
100
AcDbLine
 10
157.2528
 20
104.990556
 30
0.0
 11
157.522801
 21
104.710148
 31
0.0
  0
LINE
  5
2BC
330
1F
100
AcDbEntity
  8
0
  6
CONTINUOUS
 62
     3
100
AcDbLine
 10
153.364801
 20
104.990556
 30
0.0
 11
157.2528
 21
104.990556
 31
0.0
  0
INSERT
  5
2C0
330
1F
100
AcDbEntity
  8
0
100
AcDbBlockReference
  2
BLKF026
 10
0.0
 20
0.0
 30
0.0
  0
INSERT
  5
2DE
330
1F
100
AcDbEntity
  8
0
100
AcDbBlockReference
  2
BLKF027
 10
0.0
 20
0.0
 30
0.0
  0
LINE
  5
30B
330
1F
100
AcDbEntity
  8
0
  6
CONTINUOUS
 62
     3
100
AcDbLine
 10
157.630801
 20
109.822553
 30
0.0
 11
160.492801
 21
109.822553
 31
0.0
  0
INSERT
  5
30F
330
1F
100
AcDbEntity
  8
0
100
AcDbBlockReference
  2
BLKF028
 10
0.0
 20
0.0
 30
0.0
  0
INSERT
  5
31D
330
1F
100
AcDbEntity
  8
0
100
AcDbBlockReference
  2
BLKF029
 10
0.0
 20
0.0
 30
0.0
  0
LINE
  5
326
330
1F
100
AcDbEntity
  8
0
  6
CONTINUOUS
 62
     3
100
AcDbLine
 10
157.630801
 20
112.376722
 30
0.0
 11
160.492801
 21
112.376722
 31
0.0
  0
LINE
  5
327
330
1F
100
AcDbEntity
  8
0
  6
CONTINUOUS
 62
     3
100
AcDbLine
 10
157.522801
 20
110.118358
 30
0.0
 11
157.522801
 21
112.080917
 31
0.0
  0
INSERT
  5
32B
330
1F
100
AcDbEntity
  8
0
100
AcDbBlockReference
  2
BLKF030
 10
0.0
 20
0.0
 30
0.0
  0
LINE
  5
345
330
1F
100
AcDbEntity
  8
0
  6
CONTINUOUS
 62
     3
100
AcDbLine
 10
160.492801
 20
108.937639
 30
0.0
 11
160.492801
 21
109.822553
 31
0.0
  0
LINE
  5
346
330
1F
100
AcDbEntity
  8
0
  6
CONTINUOUS
 62
     3
100
AcDbLine
 10
160.762801
 20
111.099638
 30
0.0
 11
160.762801
 21
107.920063
 31
0.0
  0
LINE
  5
347
330
1F
100
AcDbEntity
  8
0
  6
CONTINUOUS
 62
     3
100
AcDbLine
 10
157.630801
 20
109.822553
 30
0.0
 11
157.630801
 21
108.937639
 31
0.0
  0
INSERT
  5
34B
330
1F
100
AcDbEntity
  8
0
100
AcDbBlockReference
  2
BLKF031
 10
0.0
 20
0.0
 30
0.0
  0
LINE
  5
354
330
1F
100
AcDbEntity
  8
0
  6
CONTINUOUS
 62
     3
100
AcDbLine
 10
157.522801
 20
108.701943
 30
0.0
 11
157.522801
 21
110.118358
 31
0.0
  0
LINE
  5
355
330
1F
100
AcDbEntity
  8
0
  6
CONTINUOUS
 62
     3
100
AcDbLine
 10
157.630801
 20
108.937639
 30
0.0
 11
160.492801
 21
108.937639
 31
0.0
  0
LINE
  5
356
330
1F
100
AcDbEntity
  8
0
  6
CONTINUOUS
 62
     3
100
AcDbLine
 10
160.492801
 20
112.376722
 30
0.0
 11
160.492801
 21
112.969295
 31
0.0
  0
INSERT
  5
35A
330
1F
100
AcDbEntity
  8
0
100
AcDbBlockReference
  2
BLKF032
 10
0.0
 20
0.0
 30
0.0
  0
LINE
  5
3AA
330
1F
100
AcDbEntity
  8
0
  6
CONTINUOUS
 62
     3
100
AcDbLine
 10
160.762801
 20
113.228803
 30
0.0
 11
160.762801
 21
111.099638
 31
0.0
  0
INSERT
  5
3AE
330
1F
100
AcDbEntity
  8
0
100
AcDbBlockReference
  2
BLKF033
 10
0.0
 20
0.0
 30
0.0
  0
LINE
  5
3DB
330
1F
100
AcDbEntity
  8
0
  6
CONTINUOUS
 62
     3
100
AcDbLine
 10
157.630801
 20
106.902487
 30
0.0
 11
160.492801
 21
106.902487
 31
0.0
  0
INSERT
  5
3DF
330
1F
100
AcDbEntity
  8
0
100
AcDbBlockReference
  2
BLKF034
 10
0.0
 20
0.0
 30
0.0
  0
LINE
  5
3EA
330
1F
100
AcDbEntity
  8
0
  6
CONTINUOUS
 62
     3
100
AcDbLine
 10
157.522801
 20
107.138183
 30
0.0
 11
157.522801
 21
108.701943
 31
0.0
  0
INSERT
  5
3EE
330
1F
100
AcDbEntity
  8
0
100
AcDbBlockReference
  2
BLKF035
 10
0.0
 20
0.0
 30
0.0
  0
LINE
  5
3F7
330
1F
100
AcDbEntity
  8
0
  6
CONTINUOUS
 62
     3
100
AcDbLine
 10
157.630801
 20
112.969295
 30
0.0
 11
157.630801
 21
112.376722
 31
0.0
  0
LINE
  5
3F8
330
1F
100
AcDbEntity
  8
0
  6
CONTINUOUS
 62
     3
100
AcDbLine
 10
157.522801
 20
112.080917
 30
0.0
 11
157.522801
 21
113.029403
 31
0.0
  0
LINE
  5
3F9
330
1F
100
AcDbEntity
  8
0
  6
CONTINUOUS
 62
     3
100
AcDbLine
 10
157.630801
 20
112.969295
 30
0.0
 11
160.492801
 21
112.969295
 31
0.0
  0
INSERT
  5
3FD
330
1F
100
AcDbEntity
  8
0
100
AcDbBlockReference
  2
BLKF036
 10
0.0
 20
0.0
 30
0.0
  0
LINE
  5
40B
330
1F
100
AcDbEntity
  8
0
  6
CONTINUOUS
 62
     3
100
AcDbLine
 10
160.492801
 20
106.610145
 30
0.0
 11
160.492801
 21
106.902487
 31
0.0
  0
LINE
  5
40C
330
1F
100
AcDbEntity
  8
0
  6
CONTINUOUS
 62
     3
100
AcDbLine
 10
160.762801
 20
107.920063
 30
0.0
 11
160.762801
 21
106.809228
 31
0.0
  0
LINE
  5
40D
330
1F
100
AcDbEntity
  8
0
  6
CONTINUOUS
 62
     3
100
AcDbLine
 10
160.655228
 20
113.347861
 30
0.0
 11
160.762801
 21
113.228803
 31
0.0
  0
INSERT
  5
411
330
1F
100
AcDbEntity
  8
0
100
AcDbBlockReference
  2
BLKF037
 10
0.0
 20
0.0
 30
0.0
  0
LINE
  5
41A
330
1F
100
AcDbEntity
  8
0
  6
CONTINUOUS
 62
     3
100
AcDbLine
 10
157.630801
 20
113.488312
 30
0.0
 11
160.492801
 21
113.488312
 31
0.0
  0
LINE
  5
41B
330
1F
100
AcDbEntity
  8
0
  6
CONTINUOUS
 62
     3
100
AcDbLine
 10
157.522801
 20
113.029403
 30
0.0
 11
157.522801
 21
113.428202
 31
0.0
  0
LINE
  5
41C
330
1F
100
AcDbEntity
  8
0
  6
CONTINUOUS
 62
     3
100
AcDbLine
 10
157.630801
 20
106.902487
 30
0.0
 11
157.630801
 21
106.610145
 31
0.0
  0
INSERT
  5
420
330
1F
100
AcDbEntity
  8
0
100
AcDbBlockReference
  2
BLKF038
 10
0.0
 20
0.0
 30
0.0
  0
LINE
  5
429
330
1F
100
AcDbEntity
  8
0
  6
CONTINUOUS
 62
     3
100
AcDbLine
 10
157.522801
 20
106.670254
 30
0.0
 11
157.522801
 21
107.138183
 31
0.0
  0
LINE
  5
42A
330
1F
100
AcDbEntity
  8
0
  6
CONTINUOUS
 62
     3
100
AcDbLine
 10
157.630801
 20
106.610145
 30
0.0
 11
160.492801
 21
106.610145
 31
0.0
  0
LINE
  5
42B
330
1F
100
AcDbEntity
  8
0
  6
CONTINUOUS
 62
     3
100
AcDbLine
 10
160.762801
 20
113.289228
 30
0.0
 11
160.762801
 21
113.228803
 31
0.0
  0
INSERT
  5
42F
330
1F
100
AcDbEntity
  8
0
100
AcDbBlockReference
  2
BLKF039
 10
0.0
 20
0.0
 30
0.0
  0
LINE
  5
44A
330
1F
100
AcDbEntity
  8
0
  6
CONTINUOUS
 62
     3
100
AcDbLine
 10
157.2528
 20
109.740503
 30
0.0
 11
157.2528
 21
110.641486
 31
0.0
  0
INSERT
  5
44E
330
1F
100
AcDbEntity
  8
0
100
AcDbBlockReference
  2
BLKF040
 10
0.0
 20
0.0
 30
0.0
  0
INSERT
  5
46C
330
1F
100
AcDbEntity
  8
0
100
AcDbBlockReference
  2
BLKF041
 10
0.0
 20
0.0
 30
0.0
  0
LINE
  5
499
330
1F
100
AcDbEntity
  8
0
  6
CONTINUOUS
 62
     3
100
AcDbLine
 10
153.364801
 20
107.349193
 30
0.0
 11
157.2528
 21
107.349193
 31
0.0
  0
LINE
  5
49A
330
1F
100
AcDbEntity
  8
0
  6
CONTINUOUS
 62
     3
100
AcDbLine
 10
153.364801
 20
109.740503
 30
0.0
 11
157.2528
 21
109.740503
 31
0.0
  0
LINE
  5
49B
330
1F
100
AcDbEntity
  8
0
  6
CONTINUOUS
 62
     3
100
AcDbLine
 10
153.364801
 20
110.641486
 30
0.0
 11
153.364801
 21
109.740503
 31
0.0
  0
LINE
  5
49C
330
1F
100
AcDbEntity
  8
0
  6
CONTINUOUS
 62
     3
100
AcDbLine
 10
153.364801
 20
110.641486
 30
0.0
 11
157.2528
 21
110.641486
 31
0.0
  0
INSERT
  5
4A0
330
1F
100
AcDbEntity
  8
0
100
AcDbBlockReference
  2
BLKF042
 10
0.0
 20
0.0
 30
0.0
  0
LINE
  5
4BB
330
1F
100
AcDbEntity
  8
0
  6
CONTINUOUS
 62
     3
100
AcDbLine
 10
153.364801
 20
112.922834
 30
0.0
 11
157.2528
 21
112.922834
 31
0.0
  0
INSERT
  5
4BF
330
1F
100
AcDbEntity
  8
0
100
AcDbBlockReference
  2
BLKF043
 10
0.0
 20
0.0
 30
0.0
  0
LINE
  5
4CD
330
1F
100
AcDbEntity
  8
0
  6
CONTINUOUS
 62
     3
100
AcDbLine
 10
157.2528
 20
106.866897
 30
0.0
 11
157.2528
 21
107.349193
 31
0.0
  0
LINE
  5
4CE
330
1F
100
AcDbEntity
  8
0
  6
CONTINUOUS
 62
     3
100
AcDbLine
 10
157.2528
 20
112.922834
 30
0.0
 11
157.2528
 21
113.341521
 31
0.0
  0
INSERT
  5
4D2
330
1F
100
AcDbEntity
  8
0
100
AcDbBlockReference
  2
BLKF044
 10
0.0
 20
0.0
 30
0.0
  0
LINE
  5
4FF
330
1F
100
AcDbEntity
  8
0
  6
CONTINUOUS
 62
     3
100
AcDbLine
 10
153.364801
 20
107.349193
 30
0.0
 11
153.364801
 21
106.866897
 31
0.0
  0
LINE
  5
500
330
1F
100
AcDbEntity
  8
0
  6
CONTINUOUS
 62
     3
100
AcDbLine
 10
153.364801
 20
106.866897
 30
0.0
 11
157.2528
 21
106.866897
 31
0.0
  0
LINE
  5
501
330
1F
100
AcDbEntity
  8
0
  6
CONTINUOUS
 62
     3
100
AcDbLine
 10
153.364801
 20
113.341521
 30
0.0
 11
153.364801
 21
112.922834
 31
0.0
  0
LINE
  5
502
330
1F
100
AcDbEntity
  8
0
  6
CONTINUOUS
 62
     3
100
AcDbLine
 10
153.364801
 20
113.341521
 30
0.0
 11
157.2528
 21
113.341521
 31
0.0
  0
INSERT
  5
506
330
1F
100
AcDbEntity
  8
0
100
AcDbBlockReference
  2
BLKF045
 10
0.0
 20
0.0
 30
0.0
  0
LINE
  5
556
330
1F
100
AcDbEntity
  8
0
  6
CONTINUOUS
 62
     3
100
AcDbLine
 10
153.364801
 20
106.756935
 30
0.0
 11
157.2528
 21
106.756935
 31
0.0
  0
LINE
  5
557
330
1F
100
AcDbEntity
  8
0
  6
CONTINUOUS
 62
     3
100
AcDbLine
 10
161.0328
 20
108.159228
 30
0.0
 11
160.762801
 21
108.159228
 31
0.0
  0
LINE
  5
558
330
1F
100
AcDbEntity
  8
0
  6
CONTINUOUS
 62
     3
100
AcDbLine
 10
209.130228
 20
96.032165
 30
0.0
 11
209.130228
 21
100.132165
 31
0.0
  0
LINE
  5
559
330
1F
100
AcDbEntity
  8
0
  6
CONTINUOUS
 62
     3
100
AcDbLine
 10
209.130228
 20
96.032165
 30
0.0
 11
206.650228
 21
96.032165
 31
0.0
  0
LINE
  5
55A
330
1F
100
AcDbEntity
  8
0
  6
CONTINUOUS
 62
     3
100
AcDbLine
 10
208.810228
 20
99.36363
 30
0.0
 11
206.650228
 21
99.36363
 31
0.0
  0
LINE
  5
55B
330
1F
100
AcDbEntity
  8
0
  6
CONTINUOUS
 62
     3
100
AcDbLine
 10
208.810228
 20
99.259848
 30
0.0
 11
206.650228
 21
99.259848
 31
0.0
  0
LINE
  5
55C
330
1F
100
AcDbEntity
  8
0
  6
CONTINUOUS
 62
     3
100
AcDbLine
 10
208.810228
 20
98.680293
 30
0.0
 11
206.650228
 21
98.680293
 31
0.0
  0
LINE
  5
55D
330
1F
100
AcDbEntity
  8
0
  6
CONTINUOUS
 62
     3
100
AcDbLine
 10
208.810228
 20
97.192639
 30
0.0
 11
206.650228
 21
97.192639
 31
0.0
  0
LINE
  5
55E
330
1F
100
AcDbEntity
  8
0
  6
CONTINUOUS
 62
     3
100
AcDbLine
 10
208.810228
 20
96.885471
 30
0.0
 11
206.650228
 21
96.885471
 31
0.0
  0
LINE
  5
55F
330
1F
100
AcDbEntity
  8
0
  6
CONTINUOUS
 62
     3
100
AcDbLine
 10
208.810228
 20
96.499798
 30
0.0
 11
206.650228
 21
96.499798
 31
0.0
  0
LINE
  5
560
330
1F
100
AcDbEntity
  8
0
  6
CONTINUOUS
 62
     3
100
AcDbLine
 10
208.810228
 20
99.36363
 30
0.0
 11
208.810228
 21
98.680293
 31
0.0
  0
LINE
  5
561
330
1F
100
AcDbEntity
  8
0
  6
CONTINUOUS
 62
     3
100
AcDbLine
 10
208.810228
 20
97.192639
 30
0.0
 11
208.810228
 21
96.499798
 31
0.0
  0
LINE
  5
562
330
1F
100
AcDbEntity
  8
0
  6
CONTINUOUS
 62
     3
100
AcDbLine
 10
201.250228
 20
94.932165
 30
0.0
 11
199.450228
 21
94.932165
 31
0.0
  0
LINE
  5
563
330
1F
100
AcDbEntity
  8
0
  6
CONTINUOUS
 62
     3
100
AcDbLine
 10
189.850228
 20
95.532165
 30
0.0
 11
199.450228
 21
94.932165
 31
0.0
  0
LINE
  5
564
330
1F
100
AcDbEntity
  8
0
  6
CONTINUOUS
 62
     3
100
AcDbLine
 10
199.450228
 20
94.932165
 30
0.0
 11
199.450228
 21
100.132165
 31
0.0
  0
ARC
  5
565
330
1F
100
AcDbEntity
  8
0
  6
CONTINUOUS
 62
     3
100
AcDbCircle
 10
196.250228
 20
100.132165
 30
0.0
 40
4.723999999999999
100
AcDbArc
 50
180.0
 51
201.343676
  0
ARC
  5
566
330
1F
100
AcDbEntity
  8
0
  6
CONTINUOUS
 62
     3
100
AcDbCircle
 10
191.850228
 20
100.132165
 30
0.0
 40
5.0
100
AcDbArc
 50
331.642366
 51
359.999997
  0
LINE
  5
567
330
1F
100
AcDbEntity
  8
0
  6
CONTINUOUS
 62
     3
100
AcDbLine
 10
196.250228
 20
97.757297
 30
0.0
 11
196.250228
 21
100.132165
 31
0.0
  0
LINE
  5
568
330
1F
100
AcDbEntity
  8
0
  6
CONTINUOUS
 62
     3
100
AcDbLine
 10
191.850228
 20
98.412812
 30
0.0
 11
191.850228
 21
100.132165
 31
0.0
  0
LINE
  5
569
330
1F
100
AcDbEntity
  8
0
  6
CONTINUOUS
 62
     3
100
AcDbLine
 10
196.250228
 20
97.757297
 30
0.0
 11
191.850228
 21
98.412812
 31
0.0
  0
LINE
  5
56A
330
1F
100
AcDbEntity
  8
0
  6
CONTINUOUS
 62
     3
100
AcDbLine
 10
206.650228
 20
94.652165
 30
0.0
 11
206.650228
 21
100.132165
 31
0.0
  0
LINE
  5
56B
330
1F
100
AcDbEntity
  8
0
  6
CONTINUOUS
 62
     3
100
AcDbLine
 10
201.250228
 20
100.132165
 30
0.0
 11
201.250228
 21
94.612165
 31
0.0
  0
LINE
  5
56C
330
1F
100
AcDbEntity
  8
0
  6
CONTINUOUS
 62
     3
100
AcDbLine
 10
206.450228
 20
94.452165
 30
0.0
 11
206.16375
 21
94.452165
 31
0.0
  0
ARC
  5
56D
330
1F
100
AcDbEntity
  8
0
  6
CONTINUOUS
 62
     3
100
AcDbCircle
 10
206.450228
 20
94.652165
 30
0.0
 40
0.2
100
AcDbArc
 50
270.0
 51
359.999997
  0
LINE
  5
56E
330
1F
100
AcDbEntity
  8
0
  6
CONTINUOUS
 62
     3
100
AcDbLine
 10
205.930228
 20
94.132165
 30
0.0
 11
201.730228
 21
94.132165
 31
0.0
  0
ARC
  5
56F
330
1F
100
AcDbEntity
  8
0
  6
CONTINUOUS
 62
     3
100
AcDbCircle
 10
201.730228
 20
94.612165
 30
0.0
 40
0.4799999999999999
100
AcDbArc
 50
180.0
 51
270.000002
  0
ARC
  5
570
330
1F
100
AcDbEntity
  8
0
  6
CONTINUOUS
 62
     3
100
AcDbCircle
 10
205.930228
 20
94.452165
 30
0.0
 40
0.32
100
AcDbArc
 50
270.000002
 51
359.999997
  0
LINE
  5
571
330
1F
100
AcDbEntity
  8
0
  6
CONTINUOUS
 62
     3
100
AcDbLine
 10
202.650228
 20
99.812165
 30
0.0
 11
205.930228
 21
99.812165
 31
0.0
  0
LINE
  5
572
330
1F
100
AcDbEntity
  8
0
  6
CONTINUOUS
 62
     3
100
AcDbLine
 10
202.650228
 20
98.683952
 30
0.0
 11
205.936726
 21
98.683952
 31
0.0
  0
LINE
  5
573
330
1F
100
AcDbEntity
  8
0
  6
CONTINUOUS
 62
     3
100
AcDbLine
 10
202.650228
 20
98.056949
 30
0.0
 11
205.936726
 21
98.056949
 31
0.0
  0
LINE
  5
574
330
1F
100
AcDbEntity
  8
0
  6
CONTINUOUS
 62
     3
100
AcDbLine
 10
202.650228
 20
97.057626
 30
0.0
 11
205.958187
 21
97.057626
 31
0.0
  0
LINE
  5
575
330
1F
100
AcDbEntity
  8
0
  6
CONTINUOUS
 62
     3
100
AcDbLine
 10
202.650228
 20
96.473545
 30
0.0
 11
205.958187
 21
96.473545
 31
0.0
  0
LINE
  5
576
330
1F
100
AcDbEntity
  8
0
  6
CONTINUOUS
 62
     3
100
AcDbLine
 10
202.650228
 20
95.732258
 30
0.0
 11
205.992573
 21
95.732258
 31
0.0
  0
LINE
  5
577
330
1F
100
AcDbEntity
  8
0
  6
CONTINUOUS
 62
     3
100
AcDbLine
 10
202.650228
 20
95.216949
 30
0.0
 11
205.992573
 21
95.216949
 31
0.0
  0
LINE
  5
578
330
1F
100
AcDbEntity
  8
0
  6
CONTINUOUS
 62
     3
100
AcDbLine
 10
202.650228
 20
94.837584
 30
0.0
 11
206.036518
 21
94.837584
 31
0.0
  0
LINE
  5
579
330
1F
100
AcDbEntity
  8
0
  6
CONTINUOUS
 62
     3
100
AcDbLine
 10
202.650228
 20
94.410164
 30
0.0
 11
206.036518
 21
94.410164
 31
0.0
  0
ARC
  5
57A
330
1F
100
AcDbEntity
  8
0
  6
CONTINUOUS
 62
     3
100
AcDbCircle
 10
205.930228
 20
100.132165
 30
0.0
 40
0.32
100
AcDbArc
 50
270.000002
 51
359.999997
  0
ARC
  5
57B
330
1F
100
AcDbEntity
  8
0
  6
CONTINUOUS
 62
     3
100
AcDbCircle
 10
205.936726
 20
98.370451
 30
0.0
 40
0.3135014107148244
100
AcDbArc
 50
-89.999998
 51
89.999998
  0
ARC
  5
57C
330
1F
100
AcDbEntity
  8
0
  6
CONTINUOUS
 62
     3
100
AcDbCircle
 10
205.958187
 20
96.765586
 30
0.0
 40
0.2920405259076839
100
AcDbArc
 50
-89.999998
 51
89.999998
  0
ARC
  5
57D
330
1F
100
AcDbEntity
  8
0
  6
CONTINUOUS
 62
     3
100
AcDbCircle
 10
205.992573
 20
95.474604
 30
0.0
 40
0.2576545944442354
100
AcDbArc
 50
-90.0
 51
90.0
  0
ARC
  5
57E
330
1F
100
AcDbEntity
  8
0
  6
CONTINUOUS
 62
     3
100
AcDbCircle
 10
206.036518
 20
94.623874
 30
0.0
 40
0.2137095508770223
100
AcDbArc
 50
-90.0
 51
90.0
  0
LINE
  5
57F
330
1F
100
AcDbEntity
  8
0
  6
CONTINUOUS
 62
     3
100
AcDbLine
 10
189.850228
 20
100.132165
 30
0.0
 11
189.850228
 21
95.532165
 31
0.0
  0
LINE
  5
580
330
1F
100
AcDbEntity
  8
0
  6
CONTINUOUS
 62
     3
100
AcDbLine
 10
187.319489
 20
100.132165
 30
0.0
 11
187.319489
 21
95.132165
 31
0.0
  0
LINE
  5
581
330
1F
100
AcDbEntity
  8
0
  6
CONTINUOUS
 62
     3
100
AcDbLine
 10
186.519489
 20
94.332165
 30
0.0
 11
187.319489
 21
95.132165
 31
0.0
  0
LINE
  5
582
330
1F
100
AcDbEntity
  8
0
  6
CONTINUOUS
 62
     3
100
AcDbLine
 10
182.119489
 20
100.132165
 30
0.0
 11
182.119489
 21
95.932165
 31
0.0
  0
LINE
  5
583
330
1F
100
AcDbEntity
  8
0
  6
CONTINUOUS
 62
     3
100
AcDbLine
 10
183.319489
 20
94.732165
 30
0.0
 11
186.919489
 21
94.732165
 31
0.0
  0
ARC
  5
584
330
1F
100
AcDbEntity
  8
0
  6
CONTINUOUS
 62
     3
100
AcDbCircle
 10
183.319489
 20
95.932165
 30
0.0
 40
1.2
100
AcDbArc
 50
180.0
 51
270.000002
  0
LINE
  5
585
330
1F
100
AcDbEntity
  8
0
  6
CONTINUOUS
 62
     3
100
AcDbLine
 10
186.519489
 20
94.332165
 30
0.0
 11
183.912785
 21
94.332165
 31
0.0
  0
ARC
  5
586
330
1F
100
AcDbEntity
  8
0
  6
CONTINUOUS
 62
     3
100
AcDbCircle
 10
183.912785
 20
94.972165
 30
0.0
 40
0.6399999999999995
100
AcDbArc
 50
202.024313
 51
270.000002
  0
LINE
  5
587
330
1F
100
AcDbEntity
  8
0
  6
CONTINUOUS
 62
     3
100
AcDbLine
 10
186.919489
 20
99.526188
 30
0.0
 11
183.959489
 21
99.526188
 31
0.0
  0
LINE
  5
588
330
1F
100
AcDbEntity
  8
0
  6
CONTINUOUS
 62
     3
100
AcDbLine
 10
186.919489
 20
96.766398
 30
0.0
 11
183.780941
 21
96.766398
 31
0.0
  0
LINE
  5
589
330
1F
100
AcDbEntity
  8
0
  6
CONTINUOUS
 62
     3
100
AcDbLine
 10
186.919489
 20
95.843495
 30
0.0
 11
183.780941
 21
95.843495
 31
0.0
  0
LINE
  5
58A
330
1F
100
AcDbEntity
  8
0
  6
CONTINUOUS
 62
     3
100
AcDbLine
 10
186.919489
 20
99.526188
 30
0.0
 11
186.919489
 21
96.766398
 31
0.0
  0
LINE
  5
58B
330
1F
100
AcDbEntity
  8
0
  6
CONTINUOUS
 62
     3
100
AcDbLine
 10
186.919489
 20
95.843495
 30
0.0
 11
186.919489
 21
94.732165
 31
0.0
  0
ARC
  5
58C
330
1F
100
AcDbEntity
  8
0
  6
CONTINUOUS
 62
     3
100
AcDbCircle
 10
183.959489
 20
100.166188
 30
0.0
 40
0.6399999999999995
100
AcDbArc
 50
183.047291
 51
270.000002
  0
ARC
  5
58D
330
1F
100
AcDbEntity
  8
0
  6
CONTINUOUS
 62
     3
100
AcDbCircle
 10
186.919489
 20
100.166188
 30
0.0
 40
0.6399999999999995
100
AcDbArc
 50
183.047291
 51
270.000002
  0
ARC
  5
58E
330
1F
100
AcDbEntity
  8
0
  6
CONTINUOUS
 62
     3
100
AcDbCircle
 10
183.780941
 20
96.304946
 30
0.0
 40
0.461451762930565
100
AcDbArc
 50
89.999998
 51
270.000002
  0
ARC
  5
58F
330
1F
100
AcDbEntity
  8
0
  6
CONTINUOUS
 62
     3
100
AcDbCircle
 10
186.919489
 20
96.304946
 30
0.0
 40
0.461451762930565
100
AcDbArc
 50
89.999998
 51
270.000002
  0
LINE
  5
590
330
1F
100
AcDbEntity
  8
0
  6
CONTINUOUS
 62
     3
100
AcDbLine
 10
187.319489
 20
95.570165
 30
0.0
 11
188.488228
 21
95.570165
 31
0.0
  0
LINE
  5
591
330
1F
100
AcDbEntity
  8
0
  6
CONTINUOUS
 62
     3
100
AcDbLine
 10
188.850228
 20
95.932165
 30
0.0
 11
188.488228
 21
95.570165
 31
0.0
  0
LINE
  5
592
330
1F
100
AcDbEntity
  8
0
  6
CONTINUOUS
 62
     3
100
AcDbLine
 10
188.850228
 20
95.932165
 30
0.0
 11
189.850228
 21
95.932165
 31
0.0
  0
LINE
  5
593
330
1F
100
AcDbEntity
  8
0
  6
CONTINUOUS
 62
     3
100
AcDbLine
 10
189.850228
 20
95.932165
 30
0.0
 11
189.850228
 21
95.532165
 31
0.0
  0
LINE
  5
594
330
1F
100
AcDbEntity
  8
0
  6
CONTINUOUS
 62
     3
100
AcDbLine
 10
188.688228
 20
95.770165
 30
0.0
 11
187.319489
 21
95.770165
 31
0.0
  0
LINE
  5
595
330
1F
100
AcDbEntity
  8
0
  6
CONTINUOUS
 62
     3
100
AcDbLine
 10
188.488228
 20
95.570165
 30
0.0
 11
188.488228
 21
100.132165
 31
0.0
  0
LINE
  5
596
330
1F
100
AcDbEntity
  8
0
  6
CONTINUOUS
 62
     3
100
AcDbLine
 10
188.850228
 20
95.932165
 30
0.0
 11
188.850228
 21
100.132165
 31
0.0
  0
LINE
  5
597
330
1F
100
AcDbEntity
  8
0
  6
CONTINUOUS
 62
     3
100
AcDbLine
 10
202.650228
 20
100.132165
 30
0.0
 11
202.650228
 21
94.132165
 31
0.0
  0
ARC
  5
598
330
1F
100
AcDbEntity
  8
0
  6
CONTINUOUS
 62
     3
100
AcDbCircle
 10
200.130228
 20
94.932165
 30
0.0
 40
0.6
100
AcDbArc
 50
-0.000003
 51
180.0
  0
LINE
  5
599
330
1F
100
AcDbEntity
  8
0
  6
CONTINUOUS
 62
     3
100
AcDbLine
 10
200.330228
 20
94.932165
 30
0.0
 11
200.026305
 21
95.523097
 31
0.0
  0
LINE
  5
59A
330
1F
100
AcDbEntity
  8
0
  6
CONTINUOUS
 62
     3
100
AcDbLine
 10
200.105326
 20
94.932165
 30
0.0
 11
199.836302
 21
95.455241
 31
0.0
  0
LINE
  5
59B
330
1F
100
AcDbEntity
  8
0
  6
CONTINUOUS
 62
     3
100
AcDbLine
 10
209.130228
 20
104.232165
 30
0.0
 11
209.130228
 21
100.132165
 31
0.0
  0
LINE
  5
59C
330
1F
100
AcDbEntity
  8
0
  6
CONTINUOUS
 62
     3
100
AcDbLine
 10
209.130228
 20
104.232165
 30
0.0
 11
206.650228
 21
104.232165
 31
0.0
  0
LINE
  5
59D
330
1F
100
AcDbEntity
  8
0
  6
CONTINUOUS
 62
     3
100
AcDbLine
 10
208.810228
 20
104.232165
 30
0.0
 11
208.810228
 21
104.949133
 31
0.0
  0
LINE
  5
59E
330
1F
100
AcDbEntity
  8
0
  6
CONTINUOUS
 62
     3
100
AcDbLine
 10
201.250228
 20
105.332165
 30
0.0
 11
199.450228
 21
105.332165
 31
0.0
  0
LINE
  5
59F
330
1F
100
AcDbEntity
  8
0
  6
CONTINUOUS
 62
     3
100
AcDbLine
 10
189.850228
 20
104.732165
 30
0.0
 11
199.450228
 21
105.332165
 31
0.0
  0
LINE
  5
5A0
330
1F
100
AcDbEntity
  8
0
  6
CONTINUOUS
 62
     3
100
AcDbLine
 10
199.450228
 20
105.332165
 30
0.0
 11
199.450228
 21
100.132165
 31
0.0
  0
ARC
  5
5A1
330
1F
100
AcDbEntity
  8
0
  6
CONTINUOUS
 62
     3
100
AcDbCircle
 10
196.250228
 20
100.132165
 30
0.0
 40
4.723999999999999
100
AcDbArc
 50
158.656324
 51
180.0
  0
ARC
  5
5A2
330
1F
100
AcDbEntity
  8
0
  6
CONTINUOUS
 62
     3
100
AcDbCircle
 10
191.850228
 20
100.132165
 30
0.0
 40
5.0
100
AcDbArc
 50
0.000003
 51
28.357634
  0
LINE
  5
5A3
330
1F
100
AcDbEntity
  8
0
  6
CONTINUOUS
 62
     3
100
AcDbLine
 10
196.250228
 20
102.507034
 30
0.0
 11
196.250228
 21
100.132165
 31
0.0
  0
LINE
  5
5A4
330
1F
100
AcDbEntity
  8
0
  6
CONTINUOUS
 62
     3
100
AcDbLine
 10
191.850228
 20
101.851519
 30
0.0
 11
191.850228
 21
100.132165
 31
0.0
  0
LINE
  5
5A5
330
1F
100
AcDbEntity
  8
0
  6
CONTINUOUS
 62
     3
100
AcDbLine
 10
196.250228
 20
102.507034
 30
0.0
 11
191.850228
 21
101.851519
 31
0.0
  0
LINE
  5
5A6
330
1F
100
AcDbEntity
  8
0
  6
CONTINUOUS
 62
     3
100
AcDbLine
 10
206.650228
 20
105.612165
 30
0.0
 11
206.650228
 21
100.132165
 31
0.0
  0
LINE
  5
5A7
330
1F
100
AcDbEntity
  8
0
  6
CONTINUOUS
 62
     3
100
AcDbLine
 10
201.250228
 20
100.132165
 30
0.0
 11
201.250228
 21
105.652165
 31
0.0
  0
LINE
  5
5A8
330
1F
100
AcDbEntity
  8
0
  6
CONTINUOUS
 62
     3
100
AcDbLine
 10
206.450228
 20
105.812165
 30
0.0
 11
206.16375
 21
105.812165
 31
0.0
  0
ARC
  5
5A9
330
1F
100
AcDbEntity
  8
0
  6
CONTINUOUS
 62
     3
100
AcDbCircle
 10
206.450228
 20
105.612165
 30
0.0
 40
0.2
100
AcDbArc
 50
0.000003
 51
90.0
  0
LINE
  5
5AA
330
1F
100
AcDbEntity
  8
0
  6
CONTINUOUS
 62
     3
100
AcDbLine
 10
205.930228
 20
106.132165
 30
0.0
 11
201.730228
 21
106.132165
 31
0.0
  0
ARC
  5
5AB
330
1F
100
AcDbEntity
  8
0
  6
CONTINUOUS
 62
     3
100
AcDbCircle
 10
201.730228
 20
105.652165
 30
0.0
 40
0.4799999999999999
100
AcDbArc
 50
89.999998
 51
180.0
  0
ARC
  5
5AC
330
1F
100
AcDbEntity
  8
0
  6
CONTINUOUS
 62
     3
100
AcDbCircle
 10
205.930228
 20
105.812165
 30
0.0
 40
0.32
100
AcDbArc
 50
0.000003
 51
89.999998
  0
LINE
  5
5AD
330
1F
100
AcDbEntity
  8
0
  6
CONTINUOUS
 62
     3
100
AcDbLine
 10
202.650228
 20
100.452165
 30
0.0
 11
205.930228
 21
100.452165
 31
0.0
  0
LINE
  5
5AE
330
1F
100
AcDbEntity
  8
0
  6
CONTINUOUS
 62
     3
100
AcDbLine
 10
202.650228
 20
101.58038
 30
0.0
 11
205.936726
 21
101.58038
 31
0.0
  0
LINE
  5
5AF
330
1F
100
AcDbEntity
  8
0
  6
CONTINUOUS
 62
     3
100
AcDbLine
 10
202.650228
 20
102.207382
 30
0.0
 11
205.936726
 21
102.207382
 31
0.0
  0
LINE
  5
5B0
330
1F
100
AcDbEntity
  8
0
  6
CONTINUOUS
 62
     3
100
AcDbLine
 10
202.650228
 20
103.206704
 30
0.0
 11
205.958187
 21
103.206704
 31
0.0
  0
LINE
  5
5B1
330
1F
100
AcDbEntity
  8
0
  6
CONTINUOUS
 62
     3
100
AcDbLine
 10
202.650228
 20
103.790786
 30
0.0
 11
205.958187
 21
103.790786
 31
0.0
  0
LINE
  5
5B2
330
1F
100
AcDbEntity
  8
0
  6
CONTINUOUS
 62
     3
100
AcDbLine
 10
202.650228
 20
104.532073
 30
0.0
 11
205.992573
 21
104.532073
 31
0.0
  0
LINE
  5
5B3
330
1F
100
AcDbEntity
  8
0
  6
CONTINUOUS
 62
     3
100
AcDbLine
 10
202.650228
 20
105.047382
 30
0.0
 11
205.992573
 21
105.047382
 31
0.0
  0
LINE
  5
5B4
330
1F
100
AcDbEntity
  8
0
  6
CONTINUOUS
 62
     3
100
AcDbLine
 10
202.650228
 20
105.426748
 30
0.0
 11
206.036518
 21
105.426748
 31
0.0
  0
LINE
  5
5B5
330
1F
100
AcDbEntity
  8
0
  6
CONTINUOUS
 62
     3
100
AcDbLine
 10
202.650228
 20
105.854167
 30
0.0
 11
206.036518
 21
105.854167
 31
0.0
  0
ARC
  5
5B6
330
1F
100
AcDbEntity
  8
0
  6
CONTINUOUS
 62
     3
100
AcDbCircle
 10
205.930228
 20
100.132165
 30
0.0
 40
0.32
100
AcDbArc
 50
0.000003
 51
89.999998
  0
ARC
  5
5B7
330
1F
100
AcDbEntity
  8
0
  6
CONTINUOUS
 62
     3
100
AcDbCircle
 10
205.936726
 20
101.89388
 30
0.0
 40
0.3135014107148244
100
AcDbArc
 50
-89.999998
 51
89.999998
  0
ARC
  5
5B8
330
1F
100
AcDbEntity
  8
0
  6
CONTINUOUS
 62
     3
100
AcDbCircle
 10
205.958187
 20
103.498745
 30
0.0
 40
0.2920405259076839
100
AcDbArc
 50
-89.999998
 51
89.999998
  0
ARC
  5
5B9
330
1F
100
AcDbEntity
  8
0
  6
CONTINUOUS
 62
     3
100
AcDbCircle
 10
205.992573
 20
104.789728
 30
0.0
 40
0.2576545944442354
100
AcDbArc
 50
-90.0
 51
90.0
  0
ARC
  5
5BA
330
1F
100
AcDbEntity
  8
0
  6
CONTINUOUS
 62
     3
100
AcDbCircle
 10
206.036518
 20
105.640457
 30
0.0
 40
0.2137095508770223
100
AcDbArc
 50
-90.0
 51
90.0
  0
LINE
  5
5BB
330
1F
100
AcDbEntity
  8
0
  6
CONTINUOUS
 62
     3
100
AcDbLine
 10
189.850228
 20
100.132165
 30
0.0
 11
189.850228
 21
104.732165
 31
0.0
  0
LINE
  5
5BC
330
1F
100
AcDbEntity
  8
0
  6
CONTINUOUS
 62
     3
100
AcDbLine
 10
187.319489
 20
100.132165
 30
0.0
 11
187.319489
 21
105.132165
 31
0.0
  0
LINE
  5
5BD
330
1F
100
AcDbEntity
  8
0
  6
CONTINUOUS
 62
     3
100
AcDbLine
 10
186.519489
 20
105.932165
 30
0.0
 11
187.319489
 21
105.132165
 31
0.0
  0
LINE
  5
5BE
330
1F
100
AcDbEntity
  8
0
  6
CONTINUOUS
 62
     3
100
AcDbLine
 10
182.119489
 20
100.132165
 30
0.0
 11
182.119489
 21
104.332165
 31
0.0
  0
LINE
  5
5BF
330
1F
100
AcDbEntity
  8
0
  6
CONTINUOUS
 62
     3
100
AcDbLine
 10
183.319489
 20
105.532165
 30
0.0
 11
186.919489
 21
105.532165
 31
0.0
  0
ARC
  5
5C0
330
1F
100
AcDbEntity
  8
0
  6
CONTINUOUS
 62
     3
100
AcDbCircle
 10
183.319489
 20
104.332165
 30
0.0
 40
1.2
100
AcDbArc
 50
89.999998
 51
180.0
  0
LINE
  5
5C1
330
1F
100
AcDbEntity
  8
0
  6
CONTINUOUS
 62
     3
100
AcDbLine
 10
186.519489
 20
105.932165
 30
0.0
 11
183.912785
 21
105.932165
 31
0.0
  0
ARC
  5
5C2
330
1F
100
AcDbEntity
  8
0
  6
CONTINUOUS
 62
     3
100
AcDbCircle
 10
183.912785
 20
105.292165
 30
0.0
 40
0.6399999999999995
100
AcDbArc
 50
89.999998
 51
157.975687
  0
LINE
  5
5C3
330
1F
100
AcDbEntity
  8
0
  6
CONTINUOUS
 62
     3
100
AcDbLine
 10
186.919489
 20
100.738143
 30
0.0
 11
183.959489
 21
100.738143
 31
0.0
  0
LINE
  5
5C4
330
1F
100
AcDbEntity
  8
0
  6
CONTINUOUS
 62
     3
100
AcDbLine
 10
186.919489
 20
103.497933
 30
0.0
 11
183.780941
 21
103.497933
 31
0.0
  0
LINE
  5
5C5
330
1F
100
AcDbEntity
  8
0
  6
CONTINUOUS
 62
     3
100
AcDbLine
 10
186.919489
 20
104.420836
 30
0.0
 11
183.780941
 21
104.420836
 31
0.0
  0
LINE
  5
5C6
330
1F
100
AcDbEntity
  8
0
  6
CONTINUOUS
 62
     3
100
AcDbLine
 10
186.919489
 20
100.738143
 30
0.0
 11
186.919489
 21
103.497933
 31
0.0
  0
LINE
  5
5C7
330
1F
100
AcDbEntity
  8
0
  6
CONTINUOUS
 62
     3
100
AcDbLine
 10
186.919489
 20
104.420836
 30
0.0
 11
186.919489
 21
105.532165
 31
0.0
  0
ARC
  5
5C8
330
1F
100
AcDbEntity
  8
0
  6
CONTINUOUS
 62
     3
100
AcDbCircle
 10
183.959489
 20
100.098143
 30
0.0
 40
0.6399999999999995
100
AcDbArc
 50
89.999998
 51
176.952709
  0
ARC
  5
5C9
330
1F
100
AcDbEntity
  8
0
  6
CONTINUOUS
 62
     3
100
AcDbCircle
 10
186.919489
 20
100.098143
 30
0.0
 40
0.6399999999999995
100
AcDbArc
 50
89.999998
 51
176.952709
  0
ARC
  5
5CA
330
1F
100
AcDbEntity
  8
0
  6
CONTINUOUS
 62
     3
100
AcDbCircle
 10
183.780941
 20
103.959384
 30
0.0
 40
0.461451762930565
100
AcDbArc
 50
89.999998
 51
270.000002
  0
ARC
  5
5CB
330
1F
100
AcDbEntity
  8
0
  6
CONTINUOUS
 62
     3
100
AcDbCircle
 10
186.919489
 20
103.959384
 30
0.0
 40
0.461451762930565
100
AcDbArc
 50
89.999998
 51
270.000002
  0
LINE
  5
5CC
330
1F
100
AcDbEntity
  8
0
  6
CONTINUOUS
 62
     3
100
AcDbLine
 10
187.319489
 20
104.694165
 30
0.0
 11
188.488228
 21
104.694165
 31
0.0
  0
LINE
  5
5CD
330
1F
100
AcDbEntity
  8
0
  6
CONTINUOUS
 62
     3
100
AcDbLine
 10
188.850228
 20
104.332165
 30
0.0
 11
188.488228
 21
104.694165
 31
0.0
  0
LINE
  5
5CE
330
1F
100
AcDbEntity
  8
0
  6
CONTINUOUS
 62
     3
100
AcDbLine
 10
188.850228
 20
104.332165
 30
0.0
 11
189.850228
 21
104.332165
 31
0.0
  0
LINE
  5
5CF
330
1F
100
AcDbEntity
  8
0
  6
CONTINUOUS
 62
     3
100
AcDbLine
 10
189.850228
 20
104.332165
 30
0.0
 11
189.850228
 21
104.732165
 31
0.0
  0
LINE
  5
5D0
330
1F
100
AcDbEntity
  8
0
  6
CONTINUOUS
 62
     3
100
AcDbLine
 10
188.688228
 20
104.494165
 30
0.0
 11
187.319489
 21
104.494165
 31
0.0
  0
LINE
  5
5D1
330
1F
100
AcDbEntity
  8
0
  6
CONTINUOUS
 62
     3
100
AcDbLine
 10
188.488228
 20
104.694165
 30
0.0
 11
188.488228
 21
100.132165
 31
0.0
  0
LINE
  5
5D2
330
1F
100
AcDbEntity
  8
0
  6
CONTINUOUS
 62
     3
100
AcDbLine
 10
188.850228
 20
104.332165
 30
0.0
 11
188.850228
 21
100.132165
 31
0.0
  0
LINE
  5
5D3
330
1F
100
AcDbEntity
  8
0
  6
CONTINUOUS
 62
     3
100
AcDbLine
 10
202.650228
 20
100.132165
 30
0.0
 11
202.650228
 21
106.132165
 31
0.0
  0
LINE
  5
5D4
330
1F
100
AcDbEntity
  8
0
  6
CONTINUOUS
 62
     3
100
AcDbLine
 10
208.810228
 20
104.949133
 30
0.0
 11
206.650228
 21
104.949133
 31
0.0
  0
LINE
  5
5D5
330
1F
100
AcDbEntity
  8
0
  6
CONTINUOUS
 62
     3
100
AcDbLine
 10
160.813692
 20
103.366053
 30
0.0
 11
166.208799
 21
103.366053
 31
0.0
  0
LINE
  5
5D6
330
1F
100
AcDbEntity
  8
0
  6
CONTINUOUS
 62
     3
100
AcDbLine
 10
161.219432
 20
96.866053
 30
0.0
 11
164.899605
 21
96.866053
 31
0.0
  0
LINE
  5
5D7
330
1F
100
AcDbEntity
  8
0
  6
CONTINUOUS
 62
     3
100
AcDbLine
 10
167.48372
 20
104.015514
 30
0.0
 11
167.983097
 21
103.302118
 31
0.0
  0
LINE
  5
5D8
330
1F
100
AcDbEntity
  8
0
  6
CONTINUOUS
 62
     3
100
AcDbLine
 10
167.702784
 20
100.100695
 30
0.0
 11
167.198546
 21
99.596457
 31
0.0
  0
LINE
  5
5D9
330
1F
100
AcDbEntity
  8
0
  6
CONTINUOUS
 62
     3
100
AcDbLine
 10
166.774282
 20
96.626609
 30
0.0
 11
167.422927
 21
95.443786
 31
0.0
  0
ARC
  5
5DA
330
1F
100
AcDbEntity
  8
0
  6
CONTINUOUS
 62
     3
100
AcDbCircle
 10
165.935017
 20
101.868462
 30
0.0
 40
2.5
100
AcDbArc
 50
-45.0
 51
34.99202
  0
ARC
  5
5DB
330
1F
100
AcDbEntity
  8
0
  6
CONTINUOUS
 62
     3
100
AcDbCircle
 10
168.966313
 20
97.82869
 30
0.0
 40
2.5
100
AcDbArc
 50
135.0
 51
208.739795
  0
LINE
  5
5DC
330
1F
100
AcDbEntity
  8
0
  6
CONTINUOUS
 62
     3
100
AcDbLine
 10
165.690344
 20
104.106702
 30
0.0
 11
166.189721
 21
103.393306
 31
0.0
  0
ARC
  5
5DD
330
1F
100
AcDbEntity
  8
0
  6
CONTINUOUS
 62
     3
100
AcDbCircle
 10
164.141641
 20
101.95965
 30
0.0
 40
2.5
100
AcDbArc
 50
-45.0
 51
34.99202
  0
LINE
  5
5DE
330
1F
100
AcDbEntity
  8
0
  6
CONTINUOUS
 62
     3
100
AcDbLine
 10
165.909408
 20
100.191883
 30
0.0
 11
165.405171
 21
99.687646
 31
0.0
  0
ARC
  5
5DF
330
1F
100
AcDbEntity
  8
0
  6
CONTINUOUS
 62
     3
100
AcDbCircle
 10
167.172938
 20
97.919879
 30
0.0
 40
2.5
100
AcDbArc
 50
135.0
 51
208.739795
  0
LINE
  5
5E0
330
1F
100
AcDbEntity
  8
0
  6
CONTINUOUS
 62
     3
100
AcDbLine
 10
164.980907
 20
96.717797
 30
0.0
 11
165.629552
 21
95.534974
 31
0.0
  0
LINE
  5
5E1
330
1F
100
AcDbEntity
  8
0
  6
CONTINUOUS
 62
     3
100
AcDbLine
 10
167.927063
 20
103.382165
 30
0.0
 11
182.119489
 21
103.382165
 31
0.0
  0
LINE
  5
5E2
330
1F
100
AcDbEntity
  8
0
  6
CONTINUOUS
 62
     3
100
AcDbLine
 10
166.652423
 20
96.882165
 30
0.0
 11
182.119489
 21
96.882165
 31
0.0
  0
LINE
  5
5E3
330
1F
100
AcDbEntity
  8
CSLAYER2
  6
CONTINUOUS
 62
     3
100
AcDbLine
 10
188.30604
 20
107.953632
 30
0.0
 11
187.945832
 21
107.953632
 31
0.0
  0
LINE
  5
5E4
330
1F
100
AcDbEntity
  8
CSLAYER2
  6
CONTINUOUS
 62
     3
100
AcDbLine
 10
187.945832
 20
110.430059
 30
0.0
 11
187.945832
 21
107.390807
 31
0.0
  0
LINE
  5
5E5
330
1F
100
AcDbEntity
  8
CSLAYER2
  6
CONTINUOUS
 62
     3
100
AcDbLine
 10
187.945832
 20
107.390807
 30
0.0
 11
187.045313
 21
107.390807
 31
0.0
  0
ARC
  5
5E6
330
1F
100
AcDbEntity
  8
CSLAYER2
  6
CONTINUOUS
 62
     3
100
AcDbCircle
 10
187.045313
 20
107.615937
 30
0.0
 40
0.2251298
100
AcDbArc
 50
180.0
 51
270.0
  0
LINE
  5
5E7
330
1F
100
AcDbEntity
  8
CSLAYER2
  6
CONTINUOUS
 62
     3
100
AcDbLine
 10
186.820184
 20
107.615937
 30
0.0
 11
186.820184
 21
110.430059
 31
0.0
  0
LINE
  5
5E8
330
1F
100
AcDbEntity
  8
CSLAYER2
  6
CONTINUOUS
 62
     3
100
AcDbLine
 10
187.945832
 20
109.037709
 30
0.0
 11
187.045313
 21
109.037709
 31
0.0
  0
INSERT
  5
5EC
330
1F
100
AcDbEntity
  8
0
100
AcDbBlockReference
  2
BLKF046
 10
0.0
 20
0.0
 30
0.0
  0
LINE
  5
5FE
330
1F
100
AcDbEntity
  8
CSLAYER2
  6
CONTINUOUS
 62
     3
100
AcDbLine
 10
204.875592
 20
107.773528
 30
0.0
 11
203.389736
 21
107.773528
 31
0.0
  0
LINE
  5
5FF
330
1F
100
AcDbEntity
  8
CSLAYER2
  6
CONTINUOUS
 62
     3
100
AcDbLine
 10
207.847305
 20
108.02117
 30
0.0
 11
209.198084
 21
108.02117
 31
0.0
  0
LINE
  5
600
330
1F
100
AcDbEntity
  8
CSLAYER2
  6
CONTINUOUS
 62
     3
100
AcDbLine
 10
209.198084
 20
108.02117
 30
0.0
 11
209.198084
 21
110.430059
 31
0.0
  0
LINE
  5
601
330
1F
100
AcDbEntity
  8
CSLAYER2
  6
CONTINUOUS
 62
     3
100
AcDbLine
 10
203.389736
 20
107.773528
 30
0.0
 11
203.389736
 21
110.430059
 31
0.0
  0
INSERT
  5
605
330
1F
100
AcDbEntity
  8
0
100
AcDbBlockReference
  2
BLKF047
 10
0.0
 20
0.0
 30
0.0
  0
INSERT
  5
61B
330
1F
100
AcDbEntity
  8
0
100
AcDbBlockReference
  2
BLKF048
 10
0.0
 20
0.0
 30
0.0
  0
LINE
  5
62E
330
1F
100
AcDbEntity
  8
CSLAYER2
  6
CONTINUOUS
 62
     3
100
AcDbLine
 10
202.871937
 20
109.217698
 30
0.0
 11
201.025872
 21
109.217698
 31
0.0
  0
LINE
  5
62F
330
1F
100
AcDbEntity
  8
CSLAYER2
  6
CONTINUOUS
 62
     3
100
AcDbLine
 10
202.871937
 20
109.217698
 30
0.0
 11
202.871937
 21
107.053113
 31
0.0
  0
LINE
  5
630
330
1F
100
AcDbEntity
  8
CSLAYER2
  6
CONTINUOUS
 62
     3
100
AcDbLine
 10
201.025872
 20
109.217698
 30
0.0
 11
201.025872
 21
107.053113
 31
0.0
  0
LINE
  5
631
330
1F
100
AcDbEntity
  8
CSLAYER2
  6
CONTINUOUS
 62
     3
100
AcDbLine
 10
203.254658
 20
110.430059
 30
0.0
 11
203.254658
 21
107.435834
 31
0.0
  0
LINE
  5
632
330
1F
100
AcDbEntity
  8
CSLAYER2
  6
CONTINUOUS
 62
     3
100
AcDbLine
 10
203.389736
 20
107.435834
 30
0.0
 11
203.254658
 21
107.435834
 31
0.0
  0
LINE
  5
633
330
1F
100
AcDbEntity
  8
CSLAYER2
  6
CONTINUOUS
 62
     3
100
AcDbLine
 10
202.871937
 20
107.053113
 30
0.0
 11
203.254658
 21
107.435834
 31
0.0
  0
LINE
  5
634
330
1F
100
AcDbEntity
  8
CSLAYER2
  6
CONTINUOUS
 62
     3
100
AcDbLine
 10
203.389736
 20
107.435834
 30
0.0
 11
203.389736
 21
110.430059
 31
0.0
  0
LINE
  5
635
330
1F
100
AcDbEntity
  8
CSLAYER2
  6
CONTINUOUS
 62
     3
100
AcDbLine
 10
201.025873
 20
107.053113
 30
0.0
 11
202.871937
 21
107.053113
 31
0.0
  0
LINE
  5
636
330
1F
100
AcDbEntity
  8
CSLAYER2
  6
CONTINUOUS
 62
     3
100
AcDbLine
 10
200.688178
 20
107.390807
 30
0.0
 11
201.025872
 21
107.053113
 31
0.0
  0
LINE
  5
637
330
1F
100
AcDbEntity
  8
CSLAYER2
  6
CONTINUOUS
 62
     3
100
AcDbLine
 10
200.688178
 20
110.430059
 30
0.0
 11
200.688178
 21
107.390807
 31
0.0
  0
LINE
  5
638
330
1F
100
AcDbEntity
  8
CSLAYER2
  6
CONTINUOUS
 62
     3
100
AcDbLine
 10
188.30604
 20
110.430059
 30
0.0
 11
188.30604
 21
107.615937
 31
0.0
  0
LINE
  5
639
330
1F
100
AcDbEntity
  8
CSLAYER2
  6
CONTINUOUS
 62
     3
100
AcDbLine
 10
188.53117
 20
107.390807
 30
0.0
 11
200.688178
 21
107.390807
 31
0.0
  0
ARC
  5
63A
330
1F
100
AcDbEntity
  8
CSLAYER2
  6
CONTINUOUS
 62
     3
100
AcDbCircle
 10
188.53117
 20
107.615937
 30
0.0
 40
0.2251298
100
AcDbArc
 50
180.0
 51
270.0
  0
LINE
  5
63B
330
1F
100
AcDbEntity
  8
CSLAYER2
  6
CONTINUOUS
 62
     3
100
AcDbLine
 10
207.667201
 20
106.959664
 30
0.0
 11
205.055696
 21
106.959664
 31
0.0
  0
LINE
  5
63C
330
1F
100
AcDbEntity
  8
CSLAYER2
  6
CONTINUOUS
 62
     3
100
AcDbLine
 10
207.667201
 20
107.016802
 30
0.0
 11
205.055696
 21
107.016802
 31
0.0
  0
LINE
  5
63D
330
1F
100
AcDbEntity
  8
CSLAYER2
  6
CONTINUOUS
 62
     3
100
AcDbLine
 10
207.667201
 20
107.111337
 30
0.0
 11
205.055696
 21
107.111337
 31
0.0
  0
LINE
  5
63E
330
1F
100
AcDbEntity
  8
CSLAYER2
  6
CONTINUOUS
 62
     3
100
AcDbLine
 10
207.667201
 20
107.242232
 30
0.0
 11
205.055696
 21
107.242232
 31
0.0
  0
LINE
  5
63F
330
1F
100
AcDbEntity
  8
CSLAYER2
  6
CONTINUOUS
 62
     3
100
AcDbLine
 10
207.667201
 20
107.408054
 30
0.0
 11
205.055696
 21
107.408054
 31
0.0
  0
LINE
  5
640
330
1F
100
AcDbEntity
  8
CSLAYER2
  6
CONTINUOUS
 62
     3
100
AcDbLine
 10
207.667201
 20
107.606986
 30
0.0
 11
205.055696
 21
107.606986
 31
0.0
  0
LINE
  5
641
330
1F
100
AcDbEntity
  8
CSLAYER2
  6
CONTINUOUS
 62
     3
100
AcDbLine
 10
207.667201
 20
107.836847
 30
0.0
 11
205.055696
 21
107.836847
 31
0.0
  0
LINE
  5
642
330
1F
100
AcDbEntity
  8
CSLAYER2
  6
CONTINUOUS
 62
     3
100
AcDbLine
 10
207.667201
 20
108.09512
 30
0.0
 11
205.055696
 21
108.09512
 31
0.0
  0
LINE
  5
643
330
1F
100
AcDbEntity
  8
CSLAYER2
  6
CONTINUOUS
 62
     3
100
AcDbLine
 10
207.667201
 20
108.378976
 30
0.0
 11
205.055696
 21
108.378976
 31
0.0
  0
LINE
  5
644
330
1F
100
AcDbEntity
  8
CSLAYER2
  6
CONTINUOUS
 62
     3
100
AcDbLine
 10
207.667201
 20
108.685304
 30
0.0
 11
205.055696
 21
108.685304
 31
0.0
  0
LINE
  5
645
330
1F
100
AcDbEntity
  8
CSLAYER2
  6
CONTINUOUS
 62
     3
100
AcDbLine
 10
207.667201
 20
109.010747
 30
0.0
 11
205.055696
 21
109.010747
 31
0.0
  0
LINE
  5
646
330
1F
100
AcDbEntity
  8
CSLAYER2
  6
CONTINUOUS
 62
     3
100
AcDbLine
 10
207.667201
 20
109.351741
 30
0.0
 11
205.055696
 21
109.351741
 31
0.0
  0
LINE
  5
647
330
1F
100
AcDbEntity
  8
CSLAYER2
  6
CONTINUOUS
 62
     3
100
AcDbLine
 10
207.667201
 20
109.70455
 30
0.0
 11
205.055696
 21
109.70455
 31
0.0
  0
LINE
  5
648
330
1F
100
AcDbEntity
  8
CSLAYER2
  6
CONTINUOUS
 62
     3
100
AcDbLine
 10
207.667201
 20
110.065306
 30
0.0
 11
205.055696
 21
110.065306
 31
0.0
  0
LINE
  5
649
330
1F
100
AcDbEntity
  8
CSLAYER2
  6
CONTINUOUS
 62
     3
100
AcDbLine
 10
205.055696
 20
110.430059
 30
0.0
 11
205.055696
 21
106.940548
 31
0.0
  0
LINE
  5
64A
330
1F
100
AcDbEntity
  8
CSLAYER2
  6
CONTINUOUS
 62
     3
100
AcDbLine
 10
207.667201
 20
110.430059
 30
0.0
 11
207.667201
 21
106.940548
 31
0.0
  0
LINE
  5
64B
330
1F
100
AcDbEntity
  8
CSLAYER2
  6
CONTINUOUS
 62
     3
100
AcDbLine
 10
205.055696
 20
106.940548
 30
0.0
 11
204.875592
 21
107.120652
 31
0.0
  0
LINE
  5
64C
330
1F
100
AcDbEntity
  8
CSLAYER2
  6
CONTINUOUS
 62
     3
100
AcDbLine
 10
204.875592
 20
110.430059
 30
0.0
 11
204.875592
 21
107.120652
 31
0.0
  0
LINE
  5
64D
330
1F
100
AcDbEntity
  8
CSLAYER2
  6
CONTINUOUS
 62
     3
100
AcDbLine
 10
207.667201
 20
106.940548
 30
0.0
 11
205.055696
 21
106.940548
 31
0.0
  0
LINE
  5
64E
330
1F
100
AcDbEntity
  8
CSLAYER2
  6
CONTINUOUS
 62
     3
100
AcDbLine
 10
207.847305
 20
107.120652
 30
0.0
 11
207.667201
 21
106.940548
 31
0.0
  0
LINE
  5
64F
330
1F
100
AcDbEntity
  8
CSLAYER2
  6
CONTINUOUS
 62
     3
100
AcDbLine
 10
207.847305
 20
110.430059
 30
0.0
 11
207.847305
 21
107.120652
 31
0.0
  0
LINE
  5
650
330
1F
100
AcDbEntity
  8
CSLAYER2
  6
CONTINUOUS
 62
     3
100
AcDbLine
 10
188.30604
 20
112.906487
 30
0.0
 11
187.945832
 21
112.906487
 31
0.0
  0
LINE
  5
651
330
1F
100
AcDbEntity
  8
CSLAYER2
  6
CONTINUOUS
 62
     3
100
AcDbLine
 10
187.945832
 20
110.430059
 30
0.0
 11
187.945832
 21
113.469312
 31
0.0
  0
LINE
  5
652
330
1F
100
AcDbEntity
  8
CSLAYER2
  6
CONTINUOUS
 62
     3
100
AcDbLine
 10
187.945832
 20
113.469312
 30
0.0
 11
187.045313
 21
113.469312
 31
0.0
  0
ARC
  5
653
330
1F
100
AcDbEntity
  8
CSLAYER2
  6
CONTINUOUS
 62
     3
100
AcDbCircle
 10
187.045313
 20
113.244182
 30
0.0
 40
0.2251298
100
AcDbArc
 50
90.0
 51
180.0
  0
LINE
  5
654
330
1F
100
AcDbEntity
  8
CSLAYER2
  6
CONTINUOUS
 62
     3
100
AcDbLine
 10
186.820184
 20
113.244182
 30
0.0
 11
186.820184
 21
110.430059
 31
0.0
  0
LINE
  5
655
330
1F
100
AcDbEntity
  8
CSLAYER2
  6
CONTINUOUS
 62
     3
100
AcDbLine
 10
187.945832
 20
111.82241
 30
0.0
 11
187.045313
 21
111.82241
 31
0.0
  0
INSERT
  5
659
330
1F
100
AcDbEntity
  8
0
100
AcDbBlockReference
  2
BLKF049
 10
0.0
 20
0.0
 30
0.0
  0
LINE
  5
66B
330
1F
100
AcDbEntity
  8
CSLAYER2
  6
CONTINUOUS
 62
     3
100
AcDbLine
 10
204.875592
 20
113.086591
 30
0.0
 11
203.389736
 21
113.086591
 31
0.0
  0
LINE
  5
66C
330
1F
100
AcDbEntity
  8
CSLAYER2
  6
CONTINUOUS
 62
     3
100
AcDbLine
 10
207.847305
 20
112.838948
 30
0.0
 11
209.198084
 21
112.838948
 31
0.0
  0
LINE
  5
66D
330
1F
100
AcDbEntity
  8
CSLAYER2
  6
CONTINUOUS
 62
     3
100
AcDbLine
 10
209.198084
 20
112.838948
 30
0.0
 11
209.198084
 21
110.430059
 31
0.0
  0
LINE
  5
66E
330
1F
100
AcDbEntity
  8
CSLAYER2
  6
CONTINUOUS
 62
     3
100
AcDbLine
 10
203.389736
 20
113.086591
 30
0.0
 11
203.389736
 21
110.430059
 31
0.0
  0
INSERT
  5
672
330
1F
100
AcDbEntity
  8
0
100
AcDbBlockReference
  2
BLKF050
 10
0.0
 20
0.0
 30
0.0
  0
INSERT
  5
688
330
1F
100
AcDbEntity
  8
0
100
AcDbBlockReference
  2
BLKF051
 10
0.0
 20
0.0
 30
0.0
  0
LINE
  5
69B
330
1F
100
AcDbEntity
  8
CSLAYER2
  6
CONTINUOUS
 62
     3
100
AcDbLine
 10
202.871937
 20
111.642421
 30
0.0
 11
201.025872
 21
111.642421
 31
0.0
  0
LINE
  5
69C
330
1F
100
AcDbEntity
  8
CSLAYER2
  6
CONTINUOUS
 62
     3
100
AcDbLine
 10
202.871937
 20
111.642421
 30
0.0
 11
202.871937
 21
113.807006
 31
0.0
  0
LINE
  5
69D
330
1F
100
AcDbEntity
  8
CSLAYER2
  6
CONTINUOUS
 62
     3
100
AcDbLine
 10
201.025872
 20
111.642421
 30
0.0
 11
201.025872
 21
113.807006
 31
0.0
  0
LINE
  5
69E
330
1F
100
AcDbEntity
  8
CSLAYER2
  6
CONTINUOUS
 62
     3
100
AcDbLine
 10
203.254658
 20
110.430059
 30
0.0
 11
203.254658
 21
113.424286
 31
0.0
  0
LINE
  5
69F
330
1F
100
AcDbEntity
  8
CSLAYER2
  6
CONTINUOUS
 62
     3
100
AcDbLine
 10
203.389736
 20
113.424286
 30
0.0
 11
203.254658
 21
113.424286
 31
0.0
  0
LINE
  5
6A0
330
1F
100
AcDbEntity
  8
CSLAYER2
  6
CONTINUOUS
 62
     3
100
AcDbLine
 10
202.871937
 20
113.807006
 30
0.0
 11
203.254658
 21
113.424286
 31
0.0
  0
LINE
  5
6A1
330
1F
100
AcDbEntity
  8
CSLAYER2
  6
CONTINUOUS
 62
     3
100
AcDbLine
 10
203.389736
 20
113.424286
 30
0.0
 11
203.389736
 21
110.430059
 31
0.0
  0
LINE
  5
6A2
330
1F
100
AcDbEntity
  8
CSLAYER2
  6
CONTINUOUS
 62
     3
100
AcDbLine
 10
201.025873
 20
113.807006
 30
0.0
 11
202.871937
 21
113.807006
 31
0.0
  0
LINE
  5
6A3
330
1F
100
AcDbEntity
  8
CSLAYER2
  6
CONTINUOUS
 62
     3
100
AcDbLine
 10
200.688178
 20
113.469312
 30
0.0
 11
201.025872
 21
113.807006
 31
0.0
  0
LINE
  5
6A4
330
1F
100
AcDbEntity
  8
CSLAYER2
  6
CONTINUOUS
 62
     3
100
AcDbLine
 10
200.688178
 20
110.430059
 30
0.0
 11
200.688178
 21
113.469311
 31
0.0
  0
LINE
  5
6A5
330
1F
100
AcDbEntity
  8
CSLAYER2
  6
CONTINUOUS
 62
     3
100
AcDbLine
 10
188.30604
 20
110.430059
 30
0.0
 11
188.30604
 21
113.244182
 31
0.0
  0
LINE
  5
6A6
330
1F
100
AcDbEntity
  8
CSLAYER2
  6
CONTINUOUS
 62
     3
100
AcDbLine
 10
188.53117
 20
113.469312
 30
0.0
 11
200.688178
 21
113.469312
 31
0.0
  0
ARC
  5
6A7
330
1F
100
AcDbEntity
  8
CSLAYER2
  6
CONTINUOUS
 62
     3
100
AcDbCircle
 10
188.53117
 20
113.244182
 30
0.0
 40
0.2251298
100
AcDbArc
 50
90.0
 51
180.0
  0
LINE
  5
6A8
330
1F
100
AcDbEntity
  8
CSLAYER2
  6
CONTINUOUS
 62
     3
100
AcDbLine
 10
207.667201
 20
113.900455
 30
0.0
 11
205.055696
 21
113.900455
 31
0.0
  0
LINE
  5
6A9
330
1F
100
AcDbEntity
  8
CSLAYER2
  6
CONTINUOUS
 62
     3
100
AcDbLine
 10
207.667201
 20
113.843317
 30
0.0
 11
205.055696
 21
113.843317
 31
0.0
  0
LINE
  5
6AA
330
1F
100
AcDbEntity
  8
CSLAYER2
  6
CONTINUOUS
 62
     3
100
AcDbLine
 10
207.667201
 20
113.748782
 30
0.0
 11
205.055696
 21
113.748782
 31
0.0
  0
LINE
  5
6AB
330
1F
100
AcDbEntity
  8
CSLAYER2
  6
CONTINUOUS
 62
     3
100
AcDbLine
 10
207.667201
 20
113.617887
 30
0.0
 11
205.055696
 21
113.617887
 31
0.0
  0
LINE
  5
6AC
330
1F
100
AcDbEntity
  8
CSLAYER2
  6
CONTINUOUS
 62
     3
100
AcDbLine
 10
207.667201
 20
113.452066
 30
0.0
 11
205.055696
 21
113.452066
 31
0.0
  0
LINE
  5
6AD
330
1F
100
AcDbEntity
  8
CSLAYER2
  6
CONTINUOUS
 62
     3
100
AcDbLine
 10
207.667201
 20
113.253134
 30
0.0
 11
205.055696
 21
113.253134
 31
0.0
  0
LINE
  5
6AE
330
1F
100
AcDbEntity
  8
CSLAYER2
  6
CONTINUOUS
 62
     3
100
AcDbLine
 10
207.667201
 20
113.023272
 30
0.0
 11
205.055696
 21
113.023272
 31
0.0
  0
LINE
  5
6AF
330
1F
100
AcDbEntity
  8
CSLAYER2
  6
CONTINUOUS
 62
     3
100
AcDbLine
 10
207.667201
 20
112.764998
 30
0.0
 11
205.055696
 21
112.764998
 31
0.0
  0
LINE
  5
6B0
330
1F
100
AcDbEntity
  8
CSLAYER2
  6
CONTINUOUS
 62
     3
100
AcDbLine
 10
207.667201
 20
112.481143
 30
0.0
 11
205.055696
 21
112.481143
 31
0.0
  0
LINE
  5
6B1
330
1F
100
AcDbEntity
  8
CSLAYER2
  6
CONTINUOUS
 62
     3
100
AcDbLine
 10
207.667201
 20
112.174815
 30
0.0
 11
205.055696
 21
112.174815
 31
0.0
  0
LINE
  5
6B2
330
1F
100
AcDbEntity
  8
CSLAYER2
  6
CONTINUOUS
 62
     3
100
AcDbLine
 10
207.667201
 20
111.849372
 30
0.0
 11
205.055696
 21
111.849372
 31
0.0
  0
LINE
  5
6B3
330
1F
100
AcDbEntity
  8
CSLAYER2
  6
CONTINUOUS
 62
     3
100
AcDbLine
 10
207.667201
 20
111.508378
 30
0.0
 11
205.055696
 21
111.508378
 31
0.0
  0
LINE
  5
6B4
330
1F
100
AcDbEntity
  8
CSLAYER2
  6
CONTINUOUS
 62
     3
100
AcDbLine
 10
207.667201
 20
111.15557
 30
0.0
 11
205.055696
 21
111.15557
 31
0.0
  0
LINE
  5
6B5
330
1F
100
AcDbEntity
  8
CSLAYER2
  6
CONTINUOUS
 62
     3
100
AcDbLine
 10
207.667201
 20
110.794813
 30
0.0
 11
205.055696
 21
110.794813
 31
0.0
  0
LINE
  5
6B6
330
1F
100
AcDbEntity
  8
CSLAYER2
  6
CONTINUOUS
 62
     3
100
AcDbLine
 10
205.055696
 20
110.430059
 30
0.0
 11
205.055696
 21
113.919571
 31
0.0
  0
LINE
  5
6B7
330
1F
100
AcDbEntity
  8
CSLAYER2
  6
CONTINUOUS
 62
     3
100
AcDbLine
 10
207.667201
 20
110.430059
 30
0.0
 11
207.667201
 21
113.919571
 31
0.0
  0
LINE
  5
6B8
330
1F
100
AcDbEntity
  8
CSLAYER2
  6
CONTINUOUS
 62
     3
100
AcDbLine
 10
205.055696
 20
113.919571
 30
0.0
 11
204.875592
 21
113.739467
 31
0.0
  0
LINE
  5
6B9
330
1F
100
AcDbEntity
  8
CSLAYER2
  6
CONTINUOUS
 62
     3
100
AcDbLine
 10
204.875592
 20
110.430059
 30
0.0
 11
204.875592
 21
113.739467
 31
0.0
  0
LINE
  5
6BA
330
1F
100
AcDbEntity
  8
CSLAYER2
  6
CONTINUOUS
 62
     3
100
AcDbLine
 10
207.667201
 20
113.919571
 30
0.0
 11
205.055696
 21
113.919571
 31
0.0
  0
LINE
  5
6BB
330
1F
100
AcDbEntity
  8
CSLAYER2
  6
CONTINUOUS
 62
     3
100
AcDbLine
 10
207.847305
 20
113.739467
 30
0.0
 11
207.667201
 21
113.919571
 31
0.0
  0
LINE
  5
6BC
330
1F
100
AcDbEntity
  8
CSLAYER2
  6
CONTINUOUS
 62
     3
100
AcDbLine
 10
207.847305
 20
110.430059
 30
0.0
 11
207.847305
 21
113.739467
 31
0.0
  0
LINE
  5
6BD
330
1F
100
AcDbEntity
  8
CSLAYER2
  6
CONTINUOUS
 62
     3
100
AcDbLine
 10
207.667201
 20
110.430059
 30
0.0
 11
205.055696
 21
110.430059
 31
0.0
  0
LINE
  5
6BE
330
1F
100
AcDbEntity
  8
0
  6
CONTINUOUS
 62
     3
100
AcDbLine
 10
167.774616
 20
114.096402
 30
0.0
 11
168.273993
 21
113.383006
 31
0.0
  0
LINE
  5
6BF
330
1F
100
AcDbEntity
  8
0
  6
CONTINUOUS
 62
     3
100
AcDbLine
 10
167.99368
 20
110.181584
 30
0.0
 11
167.489442
 21
109.677346
 31
0.0
  0
ARC
  5
6C0
330
1F
100
AcDbEntity
  8
0
  6
CONTINUOUS
 62
     3
100
AcDbCircle
 10
166.225913
 20
111.949351
 30
0.0
 40
2.5
100
AcDbArc
 50
-45.0
 51
34.99202
  0
ARC
  5
6C1
330
1F
100
AcDbEntity
  8
0
  6
CONTINUOUS
 62
     3
100
AcDbCircle
 10
169.257209
 20
107.909579
 30
0.0
 40
2.5
100
AcDbArc
 50
135.0
 51
208.739795
  0
LINE
  5
6C2
330
1F
100
AcDbEntity
  8
0
  6
CONTINUOUS
 62
     3
100
AcDbLine
 10
165.98124
 20
114.187591
 30
0.0
 11
166.480617
 21
113.474195
 31
0.0
  0
ARC
  5
6C3
330
1F
100
AcDbEntity
  8
0
  6
CONTINUOUS
 62
     3
100
AcDbCircle
 10
164.432537
 20
112.040539
 30
0.0
 40
2.5
100
AcDbArc
 50
-45.0
 51
34.99202
  0
LINE
  5
6C4
330
1F
100
AcDbEntity
  8
0
  6
CONTINUOUS
 62
     3
100
AcDbLine
 10
166.200304
 20
110.272772
 30
0.0
 11
165.696067
 21
109.768535
 31
0.0
  0
ARC
  5
6C5
330
1F
100
AcDbEntity
  8
0
  6
CONTINUOUS
 62
     3
100
AcDbCircle
 10
167.463834
 20
108.000768
 30
0.0
 40
2.5
100
AcDbArc
 50
135.0
 51
208.739795
  0
LINE
  5
6C6
330
1F
100
AcDbEntity
  8
0
  6
CONTINUOUS
 62
     3
100
AcDbLine
 10
165.271803
 20
106.798686
 30
0.0
 11
165.920448
 21
105.615863
 31
0.0
  0
LINE
  5
6C7
330
1F
100
AcDbEntity
  8
0
  6
CONTINUOUS
 62
     3
100
AcDbLine
 10
168.725839
 20
111.930059
 30
0.0
 11
186.820184
 21
111.930059
 31
0.0
  0
LINE
  5
6C8
330
1F
100
AcDbEntity
  8
0
  6
CONTINUOUS
 62
     3
100
AcDbLine
 10
166.974969
 20
108.930059
 30
0.0
 11
186.820184
 21
108.930059
 31
0.0
  0
LINE
  5
6C9
330
1F
100
AcDbEntity
  8
0
  6
CONTINUOUS
 62
     3
100
AcDbLine
 10
160.492801
 20
108.930059
 30
0.0
 11
165.142968
 21
108.930059
 31
0.0
  0
LINE
  5
6CA
330
1F
100
AcDbEntity
  8
0
  6
CONTINUOUS
 62
     3
100
AcDbLine
 10
160.762801
 20
111.930059
 30
0.0
 11
166.930095
 21
111.930059
 31
0.0
  0
LINE
  5
6CB
330
1F
100
AcDbEntity
  8
0
  6
CONTINUOUS
 62
     3
100
AcDbLine
 10
165.98124
 20
114.187591
 30
0.0
 11
166.480617
 21
113.474195
 31
0.0
  0
ARC
  5
6CC
330
1F
100
AcDbEntity
  8
0
  6
CONTINUOUS
 62
     3
100
AcDbCircle
 10
164.432537
 20
112.040539
 30
0.0
 40
2.5
100
AcDbArc
 50
-45.0
 51
34.99202
  0
LINE
  5
6CD
330
1F
100
AcDbEntity
  8
0
  6
CONTINUOUS
 62
     3
100
AcDbLine
 10
166.200304
 20
110.272772
 30
0.0
 11
165.696067
 21
109.768535
 31
0.0
  0
ARC
  5
6CE
330
1F
100
AcDbEntity
  8
0
  6
CONTINUOUS
 62
     3
100
AcDbCircle
 10
167.463834
 20
108.000768
 30
0.0
 40
2.5
100
AcDbArc
 50
135.0
 51
208.739795
  0
LINE
  5
6CF
330
1F
100
AcDbEntity
  8
0
  6
CONTINUOUS
 62
     3
100
AcDbLine
 10
165.271803
 20
106.798686
 30
0.0
 11
165.920448
 21
105.615863
 31
0.0
  0
LINE
  5
6D0
330
1F
100
AcDbEntity
  8
0
  6
CONTINUOUS
 62
     3
100
AcDbLine
 10
53.052484
 20
99.588471
 30
0.0
 11
55.752485
 21
99.588471
 31
0.0
  0
LINE
  5
6D1
330
1F
100
AcDbEntity
  8
0
  6
CONTINUOUS
 62
     3
100
AcDbLine
 10
55.752485
 20
109.588469
 30
0.0
 11
53.052484
 21
109.588469
 31
0.0
  0
LINE
  5
6D2
330
1F
100
AcDbEntity
  8
0
  6
CONTINUOUS
 62
     3
100
AcDbLine
 10
53.052484
 20
109.588469
 30
0.0
 11
52.802487
 21
109.338472
 31
0.0
  0
LINE
  5
6D3
330
1F
100
AcDbEntity
  8
0
  6
CONTINUOUS
 62
     3
100
AcDbLine
 10
52.802487
 20
99.838468
 30
0.0
 11
53.052484
 21
99.588471
 31
0.0
  0
LINE
  5
6D4
330
1F
100
AcDbEntity
  8
0
  6
CONTINUOUS
 62
     3
100
AcDbLine
 10
55.752485
 20
99.588471
 30
0.0
 11
55.802486
 21
99.638472
 31
0.0
  0
LINE
  5
6D5
330
1F
100
AcDbEntity
  8
0
  6
CONTINUOUS
 62
     3
100
AcDbLine
 10
57.902484
 20
109.538468
 30
0.0
 11
55.802486
 21
109.538468
 31
0.0
  0
LINE
  5
6D6
330
1F
100
AcDbEntity
  8
0
  6
CONTINUOUS
 62
     3
100
AcDbLine
 10
55.802486
 20
109.538468
 30
0.0
 11
55.752485
 21
109.588469
 31
0.0
  0
LINE
  5
6D7
330
1F
100
AcDbEntity
  8
0
  6
CONTINUOUS
 62
     3
100
AcDbLine
 10
55.802486
 20
99.638472
 30
0.0
 11
57.902484
 21
99.638472
 31
0.0
  0
LINE
  5
6D8
330
1F
100
AcDbEntity
  8
0
  6
CONTINUOUS
 62
     3
100
AcDbLine
 10
51.692478
 20
99.888468
 30
0.0
 11
52.802487
 21
99.888468
 31
0.0
  0
LINE
  5
6D9
330
1F
100
AcDbEntity
  8
0
  6
CONTINUOUS
 62
     3
100
AcDbLine
 10
52.802487
 20
109.288471
 30
0.0
 11
51.692478
 21
109.288471
 31
0.0
  0
ARC
  5
6DA
330
1F
100
AcDbEntity
  8
0
  6
CONTINUOUS
 62
     3
100
AcDbCircle
 10
36.868827
 20
103.188467
 30
0.0
 40
0.0999962805272011
100
AcDbArc
 50
179.996899
 51
270.003101
  0
LINE
  5
6DB
330
1F
100
AcDbEntity
  8
0
  6
CONTINUOUS
 62
     3
100
AcDbLine
 10
42.992479
 20
106.088469
 30
0.0
 11
36.868832
 21
106.088469
 31
0.0
  0
LINE
  5
6DC
330
1F
100
AcDbEntity
  8
0
  6
CONTINUOUS
 62
     3
100
AcDbLine
 10
36.868832
 20
103.08847
 30
0.0
 11
42.992479
 21
103.08847
 31
0.0
  0
ARC
  5
6DD
330
1F
100
AcDbEntity
  8
0
  6
CONTINUOUS
 62
     3
100
AcDbCircle
 10
45.435154
 20
99.33843
 30
0.0
 40
0.4999648996474487
100
AcDbArc
 50
234.997989
 51
270.000606
  0
INSERT
  5
6E1
330
1F
100
AcDbEntity
  8
0
100
AcDbBlockReference
  2
BLKF052
 10
0.0
 20
0.0
 30
0.0
  0
LINE
  5
6EB
330
1F
100
AcDbEntity
  8
0
  6
CONTINUOUS
 62
     3
100
AcDbLine
 10
45.43516
 20
98.838466
 30
0.0
 11
48.267476
 21
98.838466
 31
0.0
  0
LINE
  5
6EC
330
1F
100
AcDbEntity
  8
0
  6
CONTINUOUS
 62
     3
100
AcDbLine
 10
48.267476
 20
98.838466
 30
0.0
 11
48.392474
 21
98.963471
 31
0.0
  0
LINE
  5
6ED
330
1F
100
AcDbEntity
  8
0
  6
CONTINUOUS
 62
     3
100
AcDbLine
 10
48.392474
 20
110.213468
 30
0.0
 11
48.267476
 21
110.338467
 31
0.0
  0
LINE
  5
6EE
330
1F
100
AcDbEntity
  8
0
  6
CONTINUOUS
 62
     3
100
AcDbLine
 10
50.517476
 20
110.338467
 30
0.0
 11
50.392478
 21
110.213468
 31
0.0
  0
LINE
  5
6EF
330
1F
100
AcDbEntity
  8
0
  6
CONTINUOUS
 62
     3
100
AcDbLine
 10
50.392478
 20
98.963471
 30
0.0
 11
50.517476
 21
98.838466
 31
0.0
  0
LINE
  5
6F0
330
1F
100
AcDbEntity
  8
0
  6
CONTINUOUS
 62
     3
100
AcDbLine
 10
51.442473
 20
110.338467
 30
0.0
 11
50.517476
 21
110.338467
 31
0.0
  0
INSERT
  5
6F4
330
1F
100
AcDbEntity
  8
0
100
AcDbBlockReference
  2
BLKF053
 10
0.0
 20
0.0
 30
0.0
  0
ARC
  5
6FE
330
1F
100
AcDbEntity
  8
0
  6
CONTINUOUS
 62
     3
100
AcDbCircle
 10
51.442474
 20
110.088463
 30
0.0
 40
0.2500034191570872
100
AcDbArc
 50
0.001521
 51
90.000186
  0
LINE
  5
6FF
330
1F
100
AcDbEntity
  8
0
  6
CONTINUOUS
 62
     3
100
AcDbLine
 10
45.148372
 20
110.248046
 30
0.0
 11
43.205685
 21
108.887764
 31
0.0
  0
LINE
  5
700
330
1F
100
AcDbEntity
  8
0
  6
CONTINUOUS
 62
     3
100
AcDbLine
 10
43.205685
 20
100.289176
 30
0.0
 11
45.148372
 21
98.928893
 31
0.0
  0
ARC
  5
701
330
1F
100
AcDbEntity
  8
0
  6
CONTINUOUS
 62
     3
100
AcDbCircle
 10
43.492466
 20
108.478199
 30
0.0
 40
0.499987002596529
100
AcDbArc
 50
125.000059
 51
180.001798
  0
ARC
  5
702
330
1F
100
AcDbEntity
  8
0
  6
CONTINUOUS
 62
     3
100
AcDbCircle
 10
43.492466
 20
100.698741
 30
0.0
 40
0.4999870018076345
100
AcDbArc
 50
179.999056
 51
234.999941
  0
LINE
  5
703
330
1F
100
AcDbEntity
  8
0
  6
CONTINUOUS
 62
     3
100
AcDbLine
 10
58.002486
 20
114.563467
 30
0.0
 11
57.902484
 21
114.463473
 31
0.0
  0
LINE
  5
704
330
1F
100
AcDbEntity
  8
0
  6
CONTINUOUS
 62
     3
100
AcDbLine
 10
57.902484
 20
94.713467
 30
0.0
 11
58.002486
 21
94.613472
 31
0.0
  0
LINE
  5
705
330
1F
100
AcDbEntity
  8
0
  6
CONTINUOUS
 62
     3
100
AcDbLine
 10
59.702485
 20
114.563467
 30
0.0
 11
58.002486
 21
114.563467
 31
0.0
  0
LINE
  5
706
330
1F
100
AcDbEntity
  8
0
  6
CONTINUOUS
 62
     3
100
AcDbLine
 10
58.002486
 20
94.613472
 30
0.0
 11
59.702485
 21
94.613472
 31
0.0
  0
LINE
  5
707
330
1F
100
AcDbEntity
  8
0
  6
CONTINUOUS
 62
     3
100
AcDbLine
 10
59.702485
 20
94.613472
 30
0.0
 11
59.802487
 21
94.713467
 31
0.0
  0
LINE
  5
708
330
1F
100
AcDbEntity
  8
0
  6
CONTINUOUS
 62
     3
100
AcDbLine
 10
59.802487
 20
114.463473
 30
0.0
 11
59.702485
 21
114.563467
 31
0.0
  0
LINE
  5
709
330
1F
100
AcDbEntity
  8
0
  6
CONTINUOUS
 62
     3
100
AcDbLine
 10
60.052484
 20
113.463471
 30
0.0
 11
59.802487
 21
113.463471
 31
0.0
  0
LINE
  5
70A
330
1F
100
AcDbEntity
  8
0
  6
CONTINUOUS
 62
     3
100
AcDbLine
 10
59.802487
 20
95.713469
 30
0.0
 11
60.052484
 21
95.713469
 31
0.0
  0
LINE
  5
70B
330
1F
100
AcDbEntity
  8
0
  6
CONTINUOUS
 62
     3
100
AcDbLine
 10
62.252484
 20
114.580969
 30
0.0
 11
60.152485
 21
114.580969
 31
0.0
  0
LINE
  5
70C
330
1F
100
AcDbEntity
  8
0
  6
CONTINUOUS
 62
     3
100
AcDbLine
 10
60.152485
 20
94.595971
 30
0.0
 11
62.252484
 21
94.595971
 31
0.0
  0
LINE
  5
70D
330
1F
100
AcDbEntity
  8
0
  6
CONTINUOUS
 62
     3
100
AcDbLine
 10
60.152485
 20
114.580969
 30
0.0
 11
60.052484
 21
114.480967
 31
0.0
  0
LINE
  5
70E
330
1F
100
AcDbEntity
  8
0
  6
CONTINUOUS
 62
     3
100
AcDbLine
 10
60.052484
 20
94.695973
 30
0.0
 11
60.152485
 21
94.595971
 31
0.0
  0
LINE
  5
70F
330
1F
100
AcDbEntity
  8
0
  6
CONTINUOUS
 62
     3
100
AcDbLine
 10
52.802487
 20
99.838468
 30
0.0
 11
52.802487
 21
109.338472
 31
0.0
  0
LINE
  5
710
330
1F
100
AcDbEntity
  8
0
  6
CONTINUOUS
 62
     3
100
AcDbLine
 10
55.802486
 20
104.588466
 30
0.0
 11
55.802486
 21
99.638472
 31
0.0
  0
LINE
  5
711
330
1F
100
AcDbEntity
  8
0
  6
CONTINUOUS
 62
     3
100
AcDbLine
 10
55.802486
 20
109.538468
 30
0.0
 11
55.802486
 21
104.588466
 31
0.0
  0
LINE
  5
712
330
1F
100
AcDbEntity
  8
0
  6
CONTINUOUS
 62
     3
100
AcDbLine
 10
57.852484
 20
107.126186
 30
0.0
 11
57.852484
 21
102.050754
 31
0.0
  0
LINE
  5
713
330
1F
100
AcDbEntity
  8
0
  6
CONTINUOUS
 62
     3
100
AcDbLine
 10
55.852487
 20
107.126186
 30
0.0
 11
57.852484
 21
107.126186
 31
0.0
  0
LINE
  5
714
330
1F
100
AcDbEntity
  8
0
  6
CONTINUOUS
 62
     3
100
AcDbLine
 10
55.852487
 20
102.050754
 30
0.0
 11
55.852487
 21
107.126186
 31
0.0
  0
LINE
  5
715
330
1F
100
AcDbEntity
  8
0
  6
CONTINUOUS
 62
     3
100
AcDbLine
 10
57.852484
 20
102.050754
 30
0.0
 11
55.852487
 21
102.050754
 31
0.0
  0
LINE
  5
716
330
1F
100
AcDbEntity
  8
0
  6
CONTINUOUS
 62
     3
100
AcDbLine
 10
36.768831
 20
105.426522
 30
0.0
 11
36.768831
 21
105.988467
 31
0.0
  0
LINE
  5
717
330
1F
100
AcDbEntity
  8
0
  6
CONTINUOUS
 62
     3
100
AcDbLine
 10
36.768831
 20
103.188472
 30
0.0
 11
36.768831
 21
105.426522
 31
0.0
  0
LINE
  5
718
330
1F
100
AcDbEntity
  8
0
  6
CONTINUOUS
 62
     3
100
AcDbLine
 10
48.392474
 20
98.963471
 30
0.0
 11
48.392474
 21
99.270972
 31
0.0
  0
LINE
  5
719
330
1F
100
AcDbEntity
  8
0
  6
CONTINUOUS
 62
     3
100
AcDbLine
 10
48.392474
 20
110.19058
 30
0.0
 11
48.392474
 21
110.213468
 31
0.0
  0
LINE
  5
71A
330
1F
100
AcDbEntity
  8
0
  6
CONTINUOUS
 62
     3
100
AcDbLine
 10
48.392474
 20
106.422814
 30
0.0
 11
48.392474
 21
110.19058
 31
0.0
  0
LINE
  5
71B
330
1F
100
AcDbEntity
  8
0
  6
CONTINUOUS
 62
     3
100
AcDbLine
 10
48.392474
 20
104.081551
 30
0.0
 11
48.392474
 21
106.422814
 31
0.0
  0
LINE
  5
71C
330
1F
100
AcDbEntity
  8
0
  6
CONTINUOUS
 62
     3
100
AcDbLine
 10
48.392474
 20
99.270972
 30
0.0
 11
48.392474
 21
104.081551
 31
0.0
  0
LINE
  5
71D
330
1F
100
AcDbEntity
  8
0
  6
CONTINUOUS
 62
     3
100
AcDbLine
 10
50.392478
 20
104.081551
 30
0.0
 11
50.392478
 21
106.422814
 31
0.0
  0
LINE
  5
71E
330
1F
100
AcDbEntity
  8
0
  6
CONTINUOUS
 62
     3
100
AcDbLine
 10
50.392478
 20
110.19058
 30
0.0
 11
50.392478
 21
110.213468
 31
0.0
  0
LINE
  5
71F
330
1F
100
AcDbEntity
  8
0
  6
CONTINUOUS
 62
     3
100
AcDbLine
 10
51.692478
 20
99.128666
 30
0.0
 11
51.692478
 21
99.08847
 31
0.0
  0
LINE
  5
720
330
1F
100
AcDbEntity
  8
0
  6
CONTINUOUS
 62
     3
100
AcDbLine
 10
51.692478
 20
110.08847
 30
0.0
 11
51.692478
 21
99.128666
 31
0.0
  0
LINE
  5
721
330
1F
100
AcDbEntity
  8
0
  6
CONTINUOUS
 62
     3
100
AcDbLine
 10
48.392474
 20
104.081551
 30
0.0
 11
48.51748
 21
103.587384
 31
0.0
  0
LINE
  5
722
330
1F
100
AcDbEntity
  8
0
  6
CONTINUOUS
 62
     3
100
AcDbLine
 10
48.51748
 20
99.331038
 30
0.0
 11
48.392474
 21
99.270972
 31
0.0
  0
LINE
  5
723
330
1F
100
AcDbEntity
  8
0
  6
CONTINUOUS
 62
     3
100
AcDbLine
 10
48.51748
 20
99.331038
 30
0.0
 11
50.26748
 21
99.331038
 31
0.0
  0
LINE
  5
724
330
1F
100
AcDbEntity
  8
0
  6
CONTINUOUS
 62
     3
100
AcDbLine
 10
50.26748
 20
103.587384
 30
0.0
 11
48.51748
 21
103.587384
 31
0.0
  0
LINE
  5
725
330
1F
100
AcDbEntity
  8
0
  6
CONTINUOUS
 62
     3
100
AcDbLine
 10
50.26748
 20
103.587384
 30
0.0
 11
50.392478
 21
104.081551
 31
0.0
  0
LINE
  5
726
330
1F
100
AcDbEntity
  8
0
  6
CONTINUOUS
 62
     3
100
AcDbLine
 10
50.392478
 20
99.270972
 30
0.0
 11
50.26748
 21
99.331038
 31
0.0
  0
LINE
  5
727
330
1F
100
AcDbEntity
  8
0
  6
CONTINUOUS
 62
     3
100
AcDbLine
 10
50.392478
 20
106.422814
 30
0.0
 11
50.26748
 21
106.916974
 31
0.0
  0
LINE
  5
728
330
1F
100
AcDbEntity
  8
0
  6
CONTINUOUS
 62
     3
100
AcDbLine
 10
48.51748
 20
106.916974
 30
0.0
 11
48.392474
 21
106.422814
 31
0.0
  0
LINE
  5
729
330
1F
100
AcDbEntity
  8
0
  6
CONTINUOUS
 62
     3
100
AcDbLine
 10
48.51748
 20
106.916974
 30
0.0
 11
50.26748
 21
106.916974
 31
0.0
  0
LINE
  5
72A
330
1F
100
AcDbEntity
  8
0
  6
CONTINUOUS
 62
     3
100
AcDbLine
 10
48.392474
 20
110.19058
 30
0.0
 11
48.51748
 21
110.250654
 31
0.0
  0
LINE
  5
72B
330
1F
100
AcDbEntity
  8
0
  6
CONTINUOUS
 62
     3
100
AcDbLine
 10
50.26748
 20
110.250654
 30
0.0
 11
50.392478
 21
110.19058
 31
0.0
  0
LINE
  5
72C
330
1F
100
AcDbEntity
  8
0
  6
CONTINUOUS
 62
     3
100
AcDbLine
 10
50.26748
 20
110.250654
 30
0.0
 11
48.51748
 21
110.250654
 31
0.0
  0
LINE
  5
72D
330
1F
100
AcDbEntity
  8
0
  6
CONTINUOUS
 62
     3
100
AcDbLine
 10
42.992479
 20
100.698749
 30
0.0
 11
42.992479
 21
108.478183
 31
0.0
  0
LINE
  5
72E
330
1F
100
AcDbEntity
  8
0
  6
CONTINUOUS
 62
     3
100
AcDbLine
 10
50.26748
 20
98.926286
 30
0.0
 11
50.392478
 21
98.98636
 31
0.0
  0
LINE
  5
72F
330
1F
100
AcDbEntity
  8
0
  6
CONTINUOUS
 62
     3
100
AcDbLine
 10
50.26748
 20
98.926286
 30
0.0
 11
48.51748
 21
98.926286
 31
0.0
  0
LINE
  5
730
330
1F
100
AcDbEntity
  8
0
  6
CONTINUOUS
 62
     3
100
AcDbLine
 10
48.392474
 20
98.98636
 30
0.0
 11
48.51748
 21
98.926286
 31
0.0
  0
LINE
  5
731
330
1F
100
AcDbEntity
  8
0
  6
CONTINUOUS
 62
     3
100
AcDbLine
 10
57.902484
 20
94.713467
 30
0.0
 11
57.902484
 21
114.463473
 31
0.0
  0
LINE
  5
732
330
1F
100
AcDbEntity
  8
0
  6
CONTINUOUS
 62
     3
100
AcDbLine
 10
59.802487
 20
96.656191
 30
0.0
 11
59.802487
 21
94.713467
 31
0.0
  0
LINE
  5
733
330
1F
100
AcDbEntity
  8
0
  6
CONTINUOUS
 62
     3
100
AcDbLine
 10
59.802487
 20
114.463473
 30
0.0
 11
59.802487
 21
96.656191
 31
0.0
  0
LINE
  5
734
330
1F
100
AcDbEntity
  8
0
  6
CONTINUOUS
 62
     3
100
AcDbLine
 10
60.052484
 20
104.588466
 30
0.0
 11
60.052484
 21
114.480967
 31
0.0
  0
LINE
  5
735
330
1F
100
AcDbEntity
  8
0
  6
CONTINUOUS
 62
     3
100
AcDbLine
 10
60.052484
 20
94.695973
 30
0.0
 11
60.052484
 21
104.588466
 31
0.0
  0
LINE
  5
736
330
1F
100
AcDbEntity
  8
0
  6
CONTINUOUS
 62
     3
100
AcDbLine
 10
45.148372
 20
98.928893
 30
0.0
 11
45.148372
 21
110.248046
 31
0.0
  0
LINE
  5
737
330
1F
100
AcDbEntity
  8
0
  6
CONTINUOUS
 62
     3
100
AcDbLine
 10
50.392478
 20
110.19058
 30
0.0
 11
50.392478
 21
98.963471
 31
0.0
  0
INSERT
  5
73B
330
1F
100
AcDbEntity
  8
0
100
AcDbBlockReference
  2
BLKF054
 10
0.0
 20
0.0
 30
0.0
  0
INSERT
  5
749
330
1F
100
AcDbEntity
  8
0
100
AcDbBlockReference
  2
BLKF055
 10
0.0
 20
0.0
 30
0.0
  0
INSERT
  5
759
330
1F
100
AcDbEntity
  8
0
100
AcDbBlockReference
  2
BLKF056
 10
0.0
 20
0.0
 30
0.0
  0
INSERT
  5
767
330
1F
100
AcDbEntity
  8
0
100
AcDbBlockReference
  2
BLKF057
 10
0.0
 20
0.0
 30
0.0
  0
INSERT
  5
775
330
1F
100
AcDbEntity
  8
0
100
AcDbBlockReference
  2
BLKF058
 10
0.0
 20
0.0
 30
0.0
  0
INSERT
  5
783
330
1F
100
AcDbEntity
  8
0
100
AcDbBlockReference
  2
BLKF059
 10
0.0
 20
0.0
 30
0.0
  0
INSERT
  5
791
330
1F
100
AcDbEntity
  8
0
100
AcDbBlockReference
  2
BLKF060
 10
0.0
 20
0.0
 30
0.0
  0
INSERT
  5
79F
330
1F
100
AcDbEntity
  8
0
100
AcDbBlockReference
  2
BLKF061
 10
0.0
 20
0.0
 30
0.0
  0
ENDSEC
  0
SECTION
  2
OBJECTS
  0
DICTIONARY
  5
C
330
0
100
AcDbDictionary
  3
ACAD_GROUP
350
D
  3
ACAD_LAYOUT
350
1A
  3
ACAD_MLINESTYLE
350
17
  3
ACAD_PLOTSETTINGS
350
19
1001
ACAD
1000
TREAT_AS_HARD
1070
     0
  0
DICTIONARY
  5
D
102
{ACAD_REACTORS
330
C
102
}
330
C
100
AcDbDictionary
1001
ACAD
1000
TREAT_AS_HARD
1070
     0
  0
DICTIONARY
  5
1A
102
{ACAD_REACTORS
330
C
102
}
330
C
100
AcDbDictionary
1001
ACAD
1000
TREAT_AS_HARD
1070
     0
  0
DICTIONARY
  5
17
102
{ACAD_REACTORS
330
C
102
}
330
C
100
AcDbDictionary
  3
STANDARD
350
18
1001
ACAD
1000
TREAT_AS_HARD
1070
     0
  0
DICTIONARY
  5
19
102
{ACAD_REACTORS
330
C
102
}
330
C
100
AcDbDictionary
1001
ACAD
1000
TREAT_AS_HARD
1070
     0
  0
MLINESTYLE
  5
18
102
{ACAD_REACTORS
330
17
102
}
330
17
100
AcDbMlineStyle
  2
Standard
 70
     0
  3

 62
   256
 51
90.0
 52
90.0
 71
     2
 49
0.5
 62
   256
  6
BYLAYER
 49
-0.5
 62
   256
  6
BYLAYER
  0
ENDSEC
  0
EOF
